Oops, an error
Loading. Please wait.

Trampled Underfoot Bass Tab

version 2
version 2

Whole song

Interactive

2,103 views 1 this week
1 commentread comment
1 2 3 4 5
1 last vote to show rating
add to favorites
launch autoscroll
font size
0
reset
guitar tuner
Autoscroll
slow
fast
+/-
esc
set tempo
stop
Help us to improve Ultimate-Guitar.com Take our survey!
×
Author
Difficulty
novice
I couldnt find a correct tab for this song, so i figured one out.Enjoy!





    e  e  e  e   s s s s s s e
G|------------------------------|
D|-----5--5---------------------| ===== main riff
A|---------------5-3-5-3-5-3-3--|
E|--3--------3------------------|


    h        h
|------------------------|
|------------------------| ==== variation 1
|------------3-----------|
|---5--------------------|

    h        h              h        h
|------------------------|---------------------|
|------------------------|-----------3---------| ===== variation 2
|------------3-----------|--5------------------|
|---5--------------------|---------------------|

e=eighth note 
s=sixteenth note
h=half note



PLEASE RATE
Suggest correction
Give kudos to tab author, rate the tab!
1 2 3 4 5
comments
print report bad tab
1 comment total.
0 reply
kag6 10 Mar 03, 2009 05:28 AM

i dont even think there is bass in this song.. jpj plays keyboards for it

guest
You may want to rate the tab now too:
select rating
Wanna post a correction for this tab? Suggest correction