Oops, an error
Loading. Please wait.

Travelling Riverside Blues Bass Tab

version 2
version 2

Whole song

Interactive

4,711 views 6 this week
no commentswrite comment
1 2 3 4 5
excellent!
x 6
add to favorites
launch autoscroll
font size
0
reset
guitar tuner
Tab Pro tools
  • play this tab
  • loop segment
  • change instrument
  • show fretboard
  • metronome
×
Best way to learn
"Travelling Riverside Blues"
Autoscroll
slow
fast
+/-
esc
set tempo
stop
#-----------------------------PLEASE NOTE---------------------------------#
# This file is the author's own work and represents their interpretation  #
# of the song. You may only use this file for private study, scholarship, #
# or research.                                                            #
#                                                                         #
# All transcriptions on this site are the property of Achilles Last Stand #
# and cannot be used on any other website, FTP site or archive without    #
# permission from Achilles Last Stand.                                    #
#-------------------------------------------------------------------------#

TRAVELLING RIVERSIDE BLUES Bass Tab
--------------------
                                                                                    
Transcribed by Jeff Strawman, jstraw at led dash zeppelin dot org
http://www.led-zeppelin.org/

Standard Tuning

G|----------------|----------------|----------35-3--|----------------|
D|----------------|----------------|----5--3------50|3--2--0-------02|
A|----------------|----------------|----------------|---------3-012--|
E|----------------|----------------|3-33------------|----------------|

G|----------35-3--|----------------|----------35-3--|----------------|
D|-------35-----50|3-----0-------02|--------5-----50|33--2--0------02|
A|----------------|---3-----3-012--|-------5--------|----------3012--|
E|3-3-------------|----------------|3-3-------------|----------------|

G| ----------------|----------------|----------------|-------------0--|
D|o--------5-5-3---|----------------|5-5-----5-5-3---|------------0---|
A|o-------5-5----5-|-------12-23--5-|-------5-5---5--|-------12023----|
E| 3-3-------------|3-3-------------|----------------|3-3-------------|
   1. Now my sweet Mama, let me.....
   2. See my baby, tell her.....
   3. I'm goin to Rosedale.....
   4. Squeeze my lemon till the juice.....

G|----5--0505-3-0-|----------------|0-0-------------|----------------|
D|----------------|----2--23-3-44--|--------5-5-3---|----------------|
A|3-33------------|3-3-------------|-------5-5---5--|--------2-2-3-4-|
E|----------------|----------------|--------------67|3-3----3--------|

                                                     Last time to Coda
G|--------7-7-----|----------------|----------------|----------------|
D|-------7-7-7----|----------------|----5--55-5-----|----5-------5---|
A|5-5---------5--0|3-3------------1|-------------023|5-5---5-5-57-75-|
E|----------------|-----0--1-1-303-|3-3-------------|---------7------|

  D.S.
G|----------35-3--|----------------|----------35-3--|----------------|
D|-------55-----5-|3---------------|-------35-----50|3--2--0-------02|
A|---------------5|---3--5--3----57|----------------|---------3-012--|
E|3---------------|-----------567--|3-3-------------|----------------|
                                                     _________________ ________________
                                                    |1.2.4            |3.
G|----------35-3--|----------------|----------35-3--|---------------- |----------------|
D|-------35-----50|33-02-00------02|-------35-----50|33-22--0------02o|5-----------345-|
A|----------------|---------3-012--|----------------|---------3-012--o|-52223-4-5-5---5|
E|3-3-------------|----------------|3-3-------------|---------------- |----------------|

G|----------------|---------------0|--------0-0-----|----------------|
D|--------5-5-3---|------------0-3-|-------0-0--30--|-------------5--|
A|-------5-5---52-|----2--3-04-----|--------------00|-----2-3-4-5--4-|
E|3-3-------------|3-3-------------|3-3-------------|3-3-------------|

G|--------5-------|-----5-5--------|----------------|----------------|
D|-------5-525----|----5----52345-0|--------5-5-3---|----------------|
A|3-3---------3--0|3-3-----------2-|-------5-5----5-|----2-223-334-44|
E|----------------|----------------|3-3-------------|3-33------------|

                                                                 D.S.
G|--------7-7-----|-----5----------|----------------|----------------||
D|-------7-7-7----|----5--5-02345--|----53-32-2-1--1|000000-0-03-0---||
A|5-5---------5--0|3-3-------------|----------------|----------------||
E|----------------|--------------01|3-3-------------|--------------1-||

  CODA                                               repeat ad lib. to fade
G| ----------35-3--|----------------|----------35-3--|---------------- |
D|o-------55-----5-|3--2--0-------02|-------35-----50|33-22--0------02o|
A|o----------------|---------3-012--|----------------|---------3-012--o|
E| 3-333-----------|----------------|3-3-------------|---------------- |

comments
print report bad tab
I want to post or [tab]
guest
You may want to rate the tab now too:
select rating
Please do not post tabs as comments. Select "correction" instead!