Oops, an error
Loading. Please wait.

Wearing And Tearing Bass Tab

version 2
version 2

Whole song

Interactive

916 views 1 this week
no commentswrite comment
1 2 3 4 5
please rate
add to favorites
launch autoscroll
font size
0
reset
guitar tuner
Tab Pro tools
  • play this tab
  • loop segment
  • change instrument
  • show fretboard
  • metronome
×
Best way to learn
"Wearing And Tearing"
Autoscroll
slow
fast
+/-
esc
set tempo
stop
Contributor
Main Riff 1 x4
G------------------|
D----------------7-|
A-----4-4--7-7-7---|
E-5-5--------------|

Main Riff 2 x2
G--------------------------------|
D--------------------------------|
A--------------------------------|
E-2-------0-3-5------8-7-5-8-7-5-|

Chorus x4
G------------------------------------------------|
D-----------------------77-5-6-77--------5-6-777-|
A-99-7-8-999-99-7-8-999-----------5-6-77---------|
E------------------------------------------------|

Verse
G---------------------------------------------|
D*-------------------------------------------*|
A*-5^^^^^^^^-55^^^^^^^^-----------5----------*|
E-----------------------5^^^^^^^^--5^^^^^^^^--|

G-----------------------------------------|
D-----------------------------------------|
A-5^^^^^^^^-55^^^^^^^^-----------5----5-5-|
E----------------------5^^^^^^^^--5----5--|

Ending
G--------------------------------------|
D*------------------------------------*|
A*------------------------------------*|
E--2-0-2-3--2-0-2-3--2-0-2-3--2-0-3-2--|

comments
We did not receive enough feedback on this tab! Please rate:
print report bad tab
1 2 3 4 5
I want to post or [tab]
guest
You may want to rate the tab now too:
select rating
Please do not post tabs as comments. Select "correction" instead!