Oops, an error
Loading. Please wait.

Were Gonna Groove Bass Tab

version 1
version 1

Whole song

Interactive

5,584 views 3 this week
no commentswrite comment
1 2 3 4 5
please rate
add to favorites
launch autoscroll
font size
0
reset
guitar tuner
Autoscroll
slow
fast
+/-
esc
set tempo
stop
Help us to improve Ultimate-Guitar.com Take our survey!
×
We're Going To Groove
Led Zeppelin

 4/4 time                          7/8 time     4/4 time
G|----------------|----------------|------------|---------12-----|
D|----------------|----------------|------------|--2----2---2--01|
A|----------------|----------------|------------|----22-------2--|
E|----------------|----------------|------------|0---------------|

G|----00-0--------|-------0-2-0--1-|----------------|-------2-0------|
D|2-22----------79|----------------|2-220---------02|2-22-------2-001|
A|---------8-9-9--|--442-----------|-------0-1-020--|----2-----------|
E|----------------|0---------------|----------------|----------------|

G|----------1087--|----------------|----------------|-------2-0------|
D|2--4--5-------8-|--------75------|2--0---------001|2-22-------2-001|
A|----------------|7----------77556|----------3-3---|----2-----------|
E|----------------|---77-----------|------5---------|----------------|

G|----------1087--|----------------|--------2-------|----------------|
D|2--4--5-------8-|--------75------|2--0------2-0-2-|------------0012|
A|----------------|7----------77556|------0---------|0-----0---3-----|
E|----------------|---77-----------|----------------|---3------------|
                                     And we're gonna groove...

G|----------------|----------------|----------------|-------2-0------|
D|------------0012|------------0012|------------0012|2-22-------2-001|
A|0-----0---3-----|0-----0---3-----|0-----0---3-----|----2-----------|
E|---3------------|---3------------|---3------------|----------------|

G|----0--2-3------|----2--0--------|-222-2----------|-------2-0------|
D|2-22--2-------02|2-22-----2-00000|2--------0----01|2-22-------2-001|
A|------------2---|----------------|-------3---3-4--|----2-----------|
E|----------------|----------------|----------------|----------------|

G|----------------|-------2-0------|----------------|-------2-0------|
D|2--4--5---------|2-22-------2-001|2--0--------0011|2-22-------2-001|
A|----------------|----2-----------|------0---3-----|----2-----------|
E|----------------|----------------|----------------|----------------|

G|----------1087--|-------2-0------|----------------|----------------|
D|2--4--5-------8-|2-22-------2-001|2-20-0----------|------------0012|
A|----------------|----2-----------|------0-------0-|0-----0---3-----|
E|----------------|----------------|----------0-3---|---3------------|

G|----------------|----------------|----------------|-------2-0------|
D|----------------|----------------|----------------|2-22-------2-001|
A|0-----0---3-0012|0-----0---3-0012|0-----0--3--0012|----2-----------|
E|---3------------|---3------------|---3------------|----------------|

G|----0-12-3-4----|-------2-0------|----------------|-------2-0------|
D|2-22----------01|2-22-------2-001|2-2---------0-01|2-22-------2-001|
A|----------------|----2-----------|---20--1-2-2----|----2-----------|
E|----------------|----------------|----------------|----------------|

G|----------1087--|-------2-0------|------2---------|-------2-0------|
D|2--4--5-------8-|2-22-------2-001|2--0----------01|2-22-------2----|
A|----------------|----2-----------|-----------33---|----2-----------|
E|----------------|----------------|----------------|----------------|

G|------0---------|-------2-0------|----------------|----------------|
D|2--4------------|2-22-------2-001|2--0------------|2----------0--01|
A|----------------|----2-----------|------0-------0-|--220--0-3------|
E|----------------|----------------|-----------33---|------4---------|

G|----------------|----0--2-3-4--0-|-------0---47---|----0--2-0-04---|
D|2-22----------01|2-----2------2-2|2-22-----2----01|2-22--2-------01|
A|----0--0-1-2-3--|--22------------|----2-----------|----------------|
E|----------------|----------------|----------------|----------------|

G|-------2-0------|-------2-0------|-------2-0------|----0--2-3-34---|
D|2-22-------2-001|2-22-------2-001|2-22-------2-001|2-22--2---------|
A|----2-----------|----2-----------|----2-----------|--------------2-|
E|----------------|----------------|----------------|----------------|

G|----------------|----------------|-------2-0------|-------0--------|
D|----22-2-22-2222|222222-2-22-0-0-|2-22-------2-001|2--4------------|
A|--2-------------|-------------2-2|----2-----------|----------------|
E|----------------|----------------|----------------|----------------|

G|-------2-0------|----------------|-------2-0------|------0---1087--|
D|2-22-------2-001|2--0--------0011|2-22-------2-001|2--4----------8-|
A|----2-----------|------0---3-----|----2-----------|----------------|
E|----------------|----------------|----------------|----------------|

G|-------2-0------|----------------|----------------|----------------|
D|2-22-------2-001|2-20-0----------|------------0012|------------0012|
A|----2-----------|------0-------0-|0-----0---3-----|0-----0---3-----|
E|----------------|----------0-3---|---3------------|---3------------|
                    And we're gonna groove

G|----------------|----------------|-------2-0------|----0--2-3--4---|
D|------------0012|------------0012|2-22-------2-001|2-22--2-------01|
A|0-----0---3-----|0-----0---3-----|----2-----------|----------------|
E|---3------------|---3------------|----------------|----------------|

G|----2--0--------|-222-2----------|----------------|----------------|
D|2-22-----2-00000|2--------0----01|------------0012|------------0012|
A|----------------|-------3---3-4--|0-----0---3-----|0-----0---3-----|
E|----------------|----------------|---3------------|---3------------|
                    And we're gonna groove

G|----------------|----------------|----------------|----------------|
D|------------0012|------------0012|2---0-----------|----------------|
A|0-----0---3-----|0-----0---3-----|--------00------|----------------|
E|---3------------|---3------------|----------------|----------------|

Led Zeppelin Is #1 Band
Suggest correction
Give kudos to tab author, rate the tab!
1 2 3 4 5
comments
print report bad tab
guest
You may want to rate the tab now too:
select rating
Please do not post tabs as comments. Select "correction" instead!