Oops, an error
Loading. Please wait.

Were Gonna Groove Tab

version 3
version 3

Whole song

Interactive

7,319 views 24 this week
1 commentread comment
1 2 3 4 5
excellent!
x 5
add to favorites
launch autoscroll
font size
0
reset
how to read this tab
guitar tuner
Tab Pro tools
  • play this tab
  • loop segment
  • change instrument
  • show fretboard
  • metronome
×
Best way to learn
"Were Gonna Groove"
Autoscroll
slow
fast
+/-
esc
set tempo
stop
Contributor
SONG: WE’RE GONNA GROOVE
    ARTIST: LED ZEPPELIN
     ALBUM: CODA
 TABBED BY: TOM.B
 _______________________
|_________KEY___________|
 0h2   Hammer on
 2p0   Pull-off
  /    Slide up
  \    Slide down
 7b9   Regular bend up
(9)b7 Play 7thfret bent to 9 then gradually bend string
       back down to 7
 V~~   Vibrato
 tr~   Trill
  .    Staccato (Mute note(s) after playing)
 ~~~   Let Ring
 +~~   Fast
 +~+   Faster
 (2)   Invisible note
 (2)h3 Play(2)shorter than other notes: used in same way as below
 V     Play note quickly

=======================================================================
 Unfortunately this tab hasn't come out as it should have done.
 I'm sure you'll see where the mistakes have formed and it isn't too hard
 to see what it should look like. If you're not satisfied though, you can:
 
 Recieve the Word document originally typed on, please email me at
               who_cares_wot_my_name_is@hotmail.com
 requesting this tab (make MXTABS your subject title) Thank You :)
========================================================================

NOTE: Please learn strumming pattern for verse. It’s nearly impossible to get the
real feel for the song in TAB, so just listen to the song!

=======================================================================
In the song, Jimmy Page has recorded the song with Guitar 1 (Clean) to begin with
then dubbed in Guitar 2 (Mild distortion) to emphasize various parts and then gone
over it all again with Guitar 3 (Heavy fuzz) to stress chords in the Chorus and give
the solo an edge.
If you don’t have the ability of having six hands, then it’s best to put the guitar
parts together and come up with your own variation. Enjoy!
=======================================================================

INTRO (Guitar 1)
	       
E|----------|--------------------------------|
B|--Drum----|-8-8.—-8.—-8.--8-8~~~~~~~~~~~~~~|
G|--Intro---|-7-7.—-7.—-7.--7-7~~~~~~~~~~~~~~|
D|-(1-Bar)--|-6-6.—-6.—-6.--6-6~~~~~~~~~~~~~~|
A|----------|-7-7.—-7.—-7.--7-7~~~~~~~~~~~~~~|
E|----------|----------------------------0-0-|

MAIN RIFF (Guitar 1)

E|----------------|----------------------|
B|-----8-8.8.8.-8-|-888-8.8.8.8—-888888--|
G|-----7-7.7.7.-7-|-777-7.7.7.7—-777777--|
D|---6-6-6.6.6.-6-|-666-6.6.6.6—-666666--|
A|-7-7-7-7.7.7.-7-|-777-7.7.7.7—-777777--|
E|-0~~---------0--|----------------------| (x2)

VERSE 1 & 2

Guitar 1						

E|-------------------|----------------------------|
B|-------8-8.8-8-x-8~|----------------------------|
G|-------7-7.7-7-x-7~|-9---x-11---x-12---12121212-|
D|-----6-6-6.6-6-x-6~|-9---x-11---x-12---12121212-|
A|---7-7-7-7.7-7-x-7~|-7---x-9----x-10---10101010-|
E|---0~~---------0---|----------------------------|


E|-------------------|----------------------------|
B|-------8-8.8-8-x-8~|----------------------------|
G|-------7-7.7-7-x-7~|-9---x-7----x---------------|
D|-----6-6-6.6-6-x-6~|-9---x-7----x-7-------77777-|
A|---7-7-7-7.7-7-x-7~|-7---x-5----x-7-------77777-|
E|---0~~---------0---|------------x-5-------55555-|


E|-------------------|----------------------------|
B|-------8-8.8-8-x-8~|----------------------------|
G|-------7-7.7-7-x-7~|-9---x-11---x-12---12121212-|
D|-----6-6-6.6-6-x-6~|-9---x-11---x-12---12121212-|
A|---7-7-7-7.7-7-x-7~|-7---x-9----x-10---10101010-|
E|---0~~---------0---|----------------------------|


E|-------------------|----------------------------|
B|-------8-8.8-8-x-8~|----------------------------|
G|-------7-7.7-7-x-7~|-9---x-7----x---------------|
D|-----6-6-6.6-6-x-6~|-9---x-7----x-7-------77777-|
A|---7-7-7-7.7-7-x-7~|-7---x-5----x-7-------77777-|
E|---0~~---------0---|------------x-5-------55555-|
								
Guitar 2
			
E|-------------------|----------------------------|
B|-------------------|----------------------------|
G|----------------12-|----------------------------|
D|----------------12-|----------------------------|
A|-------------------|-7~~~~~7~~~~~~10~~~~~~~~~~~-|
E|-------------------|----------------------------|

E|-------------------|----------------------------|
B|-------------------|----------------------------|
G|-------------------|-9-----7--------------------|
D|-------------------|-x-----x------7~~~~~~~~~~~~-|
A|-------------------|-7-----5------x-------------|
E|-------------------|--------------5~~~~~~~~~~~~-|
			
E|-------------------|----------------------------|
B|-------------------|----------------------------|
G|----------------12-|----------------------------|
D|----------------12-|----------------------------|
A|-------------------|-7~~~~~7~~~~~~10~~~~~~~~~~~-|
E|-------------------|----------------------------|

E|-------------------|----------------------------|
B|-------------------|----------------------------|
G|-------------------|-9-----7--------------------|
D|-------------------|-x-----x------7~~~~~~~~~~~~-|
A|-------------------|-7-----5------x-------------|
E|-------------------|--------------5~~~~~~~~~~~~-|


CHORUS

Guitar 1/Guitar 2

E|------------|------------|------------|---------|
B|------------|------------|------------|-9-------|
G|------------|-9\---------|------------|-9-------|
D|-7-x-5-x-7--|-9\---------|-7-x-5-x-7--|-9-------|
A|-7-x-5-x-7--|------------|-7-x-5-x-7--|---------|
E|-5-x-3-x-5--|------------|-5-x-3-x-5--|---------|

E|------------|------------|------------|---------|
B|------------|------------|------------|---------|
G|------------|-9\---------|------------|---------|
D|-7-x-5-x-7--|-9\---------|-7-x-5-x-7--|---------|
A|-7-x-5-x-7--|------------|-7-x-5-x-7--|-5~~~~~~-|
E|-5-x-3-x-5--|------------|-5-x-3-x-5--|---------|

Guitar 3

E|------------|------------|------------|---------|
B|------------|------------|------------|---------|
G|------------|------------|------------|---------|
D|-7--5-/-7---|------------|-7--5-/-7---|---------|
A|-7--5-/-7---|------------|-7--5-/-7---|---------|
E|-5--3-/-5---|------------|-5--3-/-5---|---------|

E|------------|------------|------------|---------|
B|------------|------------|------------|---------|
G|------------|------------|------------|/7~~~~~~-|
D|-7--5-/-7---|------------|-7--5-/-7---|/7~~~~~~-|
A|-7--5-/-7---|------------|-7--5-/-7---|---------|
E|-5--3-/-5---|------------|-5--3-/-5---|---------|

VERSE 2

Guitar 1

E|----------------------|
B|-888-8.8.8.8—-888888--|
G|-777-7.7.7.7—-777777--|
D|-666-6.6.6.6—-666666--|
A|-777-7.7.7.7—-777777--|
E|----------------------|

(Continues as Verse 1)

CHORUS

SOLO

Guitar 1 (Repeated throughout as backing (approx.16bars))

E|----------------------|
B|-888-8.8.8.8—-888888--|
G|-777-7.7.7.7—-777777--|
D|-666-6.6.6.6—-666666--|
A|-777-7.7.7.7—-777777--|
E|----------------------|
   v v v v v  vvv

Guitar 3 (Repeated throughout as backing (approx.16bars))

E|------|------|
B|------|------|
G|-7~~~-|-9~~~-|
D|-7~~~-|-9~~~-|
A|-5~~~-|-7~~~-|
E|------|------|

Guitar 2

E|------------------------|-------------------------|
B|------------------------|-------------------------|
G|-7---------10-----------|-10b(12)----12b(14)r(12)-|
D|-7b(9)r(7)-10b(12)r(10)-|----12b(14)-12b(14)r(12)-|
A|------------------------|-------------------------|
E|------------------------|-------------------------|
	
         V~~~~
E|-------------|-------------------------------------------|
B|-------------|-15-----15----15----15----15----15---------|
G|-------------|-17b(19)—-(19)—-(19)—-(19)—-(19)--(19)r(17)|
D|-12p11-------|-------------------------------------------|
A|------12~~~~-|-------------------------------------------|
E|-------------|-------------------------------------------|

E|----------------------------------------------------------------------|
B|---------15-----------------------------------------------------------|
G|-15-17p15—-17p15------------------15-------------14-----14-----14-----|
D|----------------17p15-17p15-----15—-17b(19)-17p15--17p15--17p15--17p15|
A|---------------------------15h17--------------------------------------|
E|----------------------------------------------------------------------|

E|--------------------------------|-------------------------------|
B|--------------------------------|-------------------------------|
G|------14-----14-----14----------|-14-----14-----14----14-----14-|
D|-17p15--17p15--17p15—17b(19)~~~~|---17p15--17p15—17p15-—17p15---|
A|--------------------------------|-------------------------------|
E|--------------------------------|-------------------------------|

E|------------------------------------------------|
B|------------------------------------------------|
G|------------------------------------------------|
D|-15---------------------------------------------|
A|---17b(19)~~~~~~~--15-17b(19)~~~~~~~~~~~~~~-----|
E|------------------------------------------------|

E|-------------------------------------------------------|
B|-17--17--17--17--------------------17--17--17--17--17--|
G|-19b(21)(21)(21)-19p17--------17---19b(21)(22)(22)(22)-|
D|----------------------19—17h19-------------------------|
A|-------------------------------------------------------|
E|-------------------------------------------------------|

E|------------------------------------------------|
B|-17-~~~~~~~~~~~~~~~~~~~~~~~~~~~~~~~~~~~~~~~~~~--|
G|(21)~~~~~~~~~~~~~~~~~~~~~~~~~~~~~~~~~~~~~~~~~~--|
D|------------------------------------------------|
A|------------------------------------------------|
E|------------------------------------------------|


VERSE 3

E|----------------|----------------------|
B|-----8-8.8.8.-8-|-888-8.8.8.8—-888888--|
G|-----7-7.7.7.-7-|-777-7.7.7.7—-777777--|
D|---6-6-6.6.6.-6-|-666-6.6.6.6—-666666--|
A|-7-7-7-7.7.7.-7-|-777-7.7.7.7—-777777--|
E|-0~~---------0--|----------------------| (x2)

(Verse continues as Verse 1 & 2)

CHORUS (Guitar 2 variation)

E|------------|------------|------------|---------|
B|------------|------------|------------|-12-9/14-|
G|------------|------------|------------|---------|
D|-7-x-5-x-7--|-9\---------|-7-x-5-x-7--|---------|
A|-7-x-5-x-7--|------------|-7-x-5-x-7--|---------|
E|------------|------------|------------|---------|

E|------------|------------|------------|---------|
B|------------|------------|------------|---------|
G|------------|------------|------------|---------|
D|-7-x-5-x-7--|-9\---------|-7-x-5-x-7--|---------|
A|-7-x-5-x-7--|------------|-7-x-5-x-7--|-5~~~~~~-|
E|------------|------------|------------|---------|

FINAL CHORUS

Guitar 1

E|----------------------|
B|-888-8.8.8.8—-888888--|
G|-777-7.7.7.7—-777777--|
D|-666-6.6.6.6—-666666--|
A|-777-7.7.7.7—-777777--|
E|----------------------|

Guitar 1

E|------------|------------|------------|---------|
B|------------|------------|------------|-9/------|
G|------------|-9\---------|------------|-9/------|
D|-7-x-5-x-7--|-9\---------|-7-x-5-x-7--|-9/------|
A|-7-x-5-x-7--|------------|-7-x-5-x-7--|---------|
E|-5-x-3-x-5--|------------|-5-x-3-x-5--|---------|

E|------------|------------|------------|---------|
B|------------|------------|------------|---------|
G|------------|-9\---------|------------|---------|
D|-7-x-5-x-7--|-9\---------|-7-x-5-x-7--|-7--5--2-|
A|-7-x-5-x-7--|------------|-7-x-5-x-7--|-7—-5--2-|
E|-5-x-3-x-5--|------------|-5-x-3-x-5--|-5--3--0-|

Guitar 2

E|------------|------------|------------|---------|
B|------------|------------|------------|-12-9/14-|
G|------------|------------|------------|---------|
D|-7-x-5-x-7--|-9\---------|-7-x-5-x-7--|---------|
A|-7-x-5-x-7--|------------|-7-x-5-x-7--|---------|
E|------------|------------|------------|---------|

E|------------|------------|------------|---------|
B|------------|------------|------------|---------|
G|------------|------------|------------|-9--7----|
D|-7-x-5-x-7--|-9\\\\------|-7-x-5-x-7--|-9--7--2-|
A|-7-x-5-x-7--|------------|-7-x-5-x-7--|-7--5--2-|
E|------------|------------|------------|-------0-|

Guitar 3

E|------------|------------|------------|---------|
B|------------|------------|------------|---------|
G|------------|------------|------------|---------|
D|-7--5-/-7---|------------|-7--5-/-7---|---------|
A|-7--5-/-7---|------------|-7--5-/-7---|---------|
E|-5--3-/-5---|------------|-5--3-/-5---|---------|

E|------------|------------|------------|---------|
B|------------|------------|------------|---------|
G|------------|------------|------------|---------|
D|-7--5-/-7---|------------|-7--5-/-7---|---------|
A|-7--5-/-7---|------------|-7--5-/-7---|---------|
E|-5--3-/-5---|------------|-5--3-/-5---|---------|

Let last chord ring
=======================================================================
 Lyrics (my interpretations at least)
=======================================================================
See my baby coming down the track
Which of baby’s coming back?
Someday she gets back to me
And we’re gonna raise a family

And we’re gonna groove,
Yeah lets groove,
And we’re gonna groove
Ooo, woo, my baby, we’re gonna love, love, love
To the break of day!

Sweet as sweet as sweet can be,
You don’t know what you do to me,
Let me say you’re my one desire,
You just set my soul on fire

And we’re gonna groove,
Yeah lets groove,
And we’re gonna groove
My baby, we’re gonna love, love, love, love, love
To the break of day!

Ooooo, yeah!

Sweet as sweet as sweet can be,
Little baby you don’t know what you do to me,
You just set my soul on fire
Woman you know you’re my one desire, my one desire, my one

And we’re gonna groove,
Wow we’re gonna groove,
We’re gonna groove
Yeah! And we’re gonna love, love, love
To the break of day!

And we’re gonna groove,
Yeah groove,
And we’re gonna groove
Lovely mamma yeah!
=======================================================================
Thanks! Please rate tab
comments
print report bad tab
1 comment total.
0 reply
Dottori wrote on December 6 2010, 04:45 pm

i loved it until i got to the solo, and only because i cant play it :P, ill keep trying though, sweet tab

I want to post or [tab]
guest
You may want to rate the tab now too:
select rating
Please do not post tabs as comments. Select "correction" instead!