Oops, an error
Loading. Please wait.

What Is And What Should Never Be Tab

version 3
version 3

Whole song

Interactive

82,996 views 99 this week
11 commentsread comments
1 2 3 4 5
excellent!
x 44
add to favorites
launch autoscroll
font size
0
reset
how to read this tab
guitar tuner
Autoscroll
slow
fast
+/-
esc
set tempo
stop
Help us to improve Ultimate-Guitar.com Take our survey!
×
Author
Led Zeppelin
What is and what should never be
Tabber:Brian Gelvin

This song has 2 parts Electric Guitar 1 and 2, Standard tuning for all guitars.
 
Electric Gutiar 1 w/clean tone

 [Rhythm Figure 1]
e|-------------------------|0--0--0--0--0--0--0--0----|
B|-------------------------|7--7--7--7--7--7--7--7--0-|
G|-------------------------|6--6--6--6--6--6--6--6--0-|
D|-------------------------|5--5--5--5--5--5--5--5----|
A|-------------------------|--------------------------|
E|-------------------------|--------------------------|
 And if I say_ to you to - mor-row,


e|-----0---7---0----0-----0--0--0--0--0--0--0--0--0----|
B|7--7-0-7-7-7-0-7--0--7--0--7--7--7--7--7--7--7--7--0-|
G|7--7-7-7-7-7-7-7--7--7--7--6--6--6--6--6--6--6--6--0-|
D|6--6-6-6---6-6-6--6--6--6--5--5--5--5--5--5--5--5----|
A|-----------------------------------------------------|
E|-----------------------------------------------------|
          take my hand child, come with me,__


e|-----0---7---0----0-----0--0--0--0--0--0--0--0--0----|
B|7--7-0-7-7-7-0-7--0--7--0--7--7--7--7--7--7--7--7--0-|
G|7--7-7-7-7-7-7-7--7--7--7--6--6--6--6--6--6--6--6--0-|
D|6--6-6-6---6-6-6--6--6--6--5--5--5--5--5--5--5--5----|
A|-----------------------------------------------------|
E|-----------------------------------------------------|
          it's  to a cas-tle__ I will take you,__

                                   End of Rhythm Figure 1
e|-----0---0-7-----0-----0--0--0--0--0--0--0--0--------|
B|7--7-0-7-0-0--7--0--7--0--7--7--7--7--7--7--7-(7)/---|
G|7--7-7-7-7-7--7--7--7-----6--6--6--6--6--6--6-(6)/---|
D|6--6-6-6-6-6--6--6--6--6--5--5--5--5--5--5--5-(5)/---|
A|-----------------------------------------------------|
E|-----------------------------------------------------|
         well, what's to  be they say will_ be.__  Ah,

 [Rhythm Figure 2]
 with distortion
e|---------------------------------------------------------------|
B|----------------------------------------------------3---2--x-x-|
G|----------------------------------------------------2---2--x-x-|
D|5-7h~~--7p5-5----5~~------5p0------4~~4-0-4p0-x---0-4---2--x-x-|
A|0-----0-0----(0)-0---0--0-0----x-0-0--0-0-0---x-0-0-----0--x-x-|
E|---------------------------------------------------------------|
     (pm........)   (pm)                       (pm.)
catch the wind_see us spin,sail away,leave today,way up high in the sky_ Hey oh,_then the

e|-----------------------------------------------------------------|
B|-------------------------------------------------------3---2-----|
G|-------------------------------------------------------2---2--2--|
D|5-7h-------7p5-----5~~-----5p0-x---4~----4-4p0-x-x--2--4---2--2--|
A|0-----0~-0-0----0--0--0--0-0---x-0---0-0-0-0---x-x--0--0---0--0--|
E|-----------------------------------------------------------------|
      (pm)      (pm)  (pm)           (pm...)        (pm)
wind won't blow, you really should'nt go, it only goes to show_  that_

                                                  *
e|----------------------------------------0----------------------------|
B|4--4-4-4-4--4----4-----4-----4-----4--x-0---4-----(2)----------------|
G|4--4-4-4-4--4----4-----4-----4-----4--x-1---4------3-----------------|
D|4--4-4-4-4--4----4-----4-----4-----4----2---4------4-----------------|
A|2--2-2-2-2--2-0-----0-------------------2---2------4-----------------|
E|--------------------------4-----4-------0-----(0)--2-----------------|
you will be mine__ by taking our__ time.__         Ooh________________

                               End of Rhythm Figure 2
e|---------------------------------------------------|
B|(5)------------------------------------------------|
G|-6-------------------------------------------------|
D|-7-------------------------------------------------|
A|-7-------------------2-----------------------------|
E|-5---------------3b--0-----------------------------|
__                         And if you say to me to -


 [Verse 2]
 clean tone
e|0--0--0--0--0--0--0-----0--0--0--0--0--0--0--0--0--0--0--0--0--0--0--0--|
B|7--7--7--7--7--7--7--0--5--5--5--5--5--5--5--5--7--7--7--7--7--7--7--0--|
G|6--6--6--6--6--6--6--0--7--7--7--7--7--7--7--7--6--6--6--6--6--6--6--6--|
D|5--5--5--5--5--5--5-----6--8--8--8--8--8--8--8--5--5--5--5--5--5--5--5--|
A|------------------------------------------------------------------------|
E|------------------------------------------------------------------------|
mor-row,                         oh,what fun it all___would be.__


e|------0-----0-----0-----0--0--0--0--0--0--0--0-----------------------0--|
B|5--0-----0-----0-----0--7--7--7--7--7--7--7--0--7--0--7--7-----0--7--0--|
G|7--7-----7-----7-----7--6--6--6--6--6--6--6--6--7--7--7--7-----7--7--7--|
D|6--6-----6-----6-----6--5--5--5--5--5--5--5--5--6--6--6--6-----6--6--6--|
A|------------------------------------------------------------------------|
E|------------------------------------------------------------------------|
     Then what's to stop us pret-ty ba - by____            but what is and

                         (Distorted)
e|0--0--0--0-----0------------------------------------------|
B|7--7--7--7-----7------------------------------------------|
G|6--6--6--6-----6------------------------------------------|
D|5--5--5--5-----5-------5-7h~~----7-5-----5~~----5p0-x-----|
A|-----------------------0-----0-0-0---(0)-0--0-0-----x--0--|
E|----------------------------------------------------------|
                             (pm...)  (pm)  (pm.)      (pm)
what should never be. I catch the wind_see us spin,sail away,leave today,_

e|--------------------------------------------------------------|
B|------------------3---2---------------------------------------|
G|----------------2-2---2---------------------------------------|
D|4-4-4-4-4p0-x---2-4---2------5p7~~----7-5----5------5p0-x-----|
A|0-0-0-0-0---x-0---0---0--0-0-0----0-0-0--(0)-0--0-0-----x--0--|
E|--------------------------------------------------------------|
              (pm.)      (pm.)    (pm.)   (pm)  (pm.)      (pm)
way up high,in the sky Hey, oh then the wind_won't blow, you really should'nt go. It

e|----------------------------------------------------------|
B|------------------3---2--------------4------4-4-4---4-4-4-|
G|----------------2-2---2------4---4---4------4-4-4---4-4-4-|
D|4-4-4-4-4p0-x---2-4---2------4---4---4------4-4-4---4-4-4-|
A|0-0-0-0-0---x-0---0---0--0-0-2---2-2----2-0-------0-------|
E|----------------------------------------------------------|
              (pm.)      (pm.)
only goes to show__       that you will be mine__      by

e|-------------------0---------------------------------------------------------------|
B|--4-4-4---4--------0---4-----2---------------(5)-----------------------------------|
G|--4-4-4---4--------1---4-----3----------------6------------------------------------|
D|--4-4-4---4--------2---4--2--4----------------7------------------------------------|
A|-------------------2---2--0--4----------------7-------------------2----------------|
E|4-------4---4--(0)-0---------2----------------5--------------3b---0----------------|
tak - ing our_ time._         Ooh.______________

 [Guitar Solo]
 Electric Guitar 2
 w/slide
 and clean tone        With Rhythm Figure 1
e|---------------------|--------------------------------------------------------------|
B|-------5---7/9--7/9--|7\2--2~~~~~~~~~~~2-\---------5--7/9----7/9------7\2~~~~~~~~~~-|
G|--4--6---------------|----(2)---------(2)\----4--6----7/9----7/9------7\2~~~~~~~~~~-|
D|---------------------|--------------------------------------------------------------|
A|---------------------|--------------------------------------------------------------|
E|---------------------|--------------------------------------------------------------|

                                                                 8va______
e|-----12~~~~10--x-----------------------------------------------12p15^-12---------------------|
B|7-12-------------12--11-12h--11-12h-10---10/14---(14)~~~~--12------------12-10/12-10-8--10~--|
G|---------------------------------------------------------------------------------------------|
D|---------------------------------------------------------------------------------------------|
A|---------------------------------------------------------------------------------------------|
E|---------------------------------------------------------------------------------------------|

     End Figure 1|With Rhythm Figure 2
e|---------------|-----------------------------------------------------------------------|
B|10/14-14\------|-----14-14----14-14\---------14-14-14\---------------------------------|
G|---------------|-----14-14----14-14\------14----14-14\------14~14~---14~14~----14(14)\-|
D|---------------|7-14-------14-14-14\-5/14~------14-14\-4/14-------14~------12--14-14-\-|
A|---------------|-----------------------------------------------------------12----------|
E|---------------|-----------------------------------------------------------------------|


e|------------------------------------------------------------------------------------|
B|-----14~---14(14)\---------14----14-(14)---------14-----14--------------------------|
G|-----------14(14)\------14----14-14-(14)------14----14-----14-------------14-(14)\--|
D|7-14----14~14(14)\-5/14----------14-(14)-4/14-----------------12--(12)\---14-(14)\--|
A|--------------------------------------------------------------12--(12)\-------------|
E|------------------------------------------------------------------------------------|


e|-----------------------------------------------------------------------------------------|
B|--------16~---16~---(16)---------16------16-16----------16----16------16-16\9------------|
G|-----16~---16~---16~(16)------16----(16)-16-16-------16----16----(16)-------9---16-(16)\-|
D|9/16---------------------7/16-------------------6/16------------------------9---16-(16)\-|
A|-----------------------------------------------------------------------------------------|
E|-----------------------------------------------------------------------------------------|


e|--------------------------------------------------------------------------|
B|--16/17----16--14~~-------14\12/14-(14)~14\12/14~12/14--12/14---12\-------|
G|-----------------------14-------------------------------------------------|
D|-------------------14-----------------------------------------------------|
A|--------------------------------------------------------------------------|
E|--------------------------------------------------------------------------|

 [Verse 3]
                  End Figure 2|Guitar 1
e|----------------------------|0--0--0--0--0--0--0--0----0--0-0-0-7---0-0--0--0--0--|
B|(9)\------------------------|7--7--7--7--7--7--7--7--0-7--7-5-7-7-7-0-7--0--7--0--|
G|(9)\------------------------|6--6--6--6--6--6--6--6--6-7--7-7-7-7-7-7-7--7--7--7--|
D|(9)\------------------------|5--5--5--5--5--5--5--5--5-6--6-6-6---6-6-6--6--6--6--|
A|----------------------------|-----------------------------------------------------|
E|----------------------------|-----------------------------------------------------|
     So if you wake up with the sun-rise                    and all your dreans are


e|0--0--0--0--0--0--0--0----0--0-0-0-7---0-0--0--0--0--0--0--0--0--0--0--0--0----|
B|7--7--7--7--7--7--7--7--0-7--7-5-7-7-7-0-7--0--7--0--7--7--7--7--7--7--7--7--0-|
G|6--6--6--6--6--6--6--6--6-7--7-7-7-7-7-7-7--7--7--7--6--6--6--6--6--6--6--6--6-|
D|5--5--5--5--5--5--5--5--5-6--6-6-6---6-6-6--6--6--6--5--5--5--5--5--5--5--5--5-|
A|-------------------------------------------------------------------------------|
E|-------------------------------------------------------------------------------|
still as new._                      And hppiness is what you need so bad,___


e|0--0-0-0-7---0-0--0--0--0--0--0--0--0--0--0--0-----|
B|7--7-5-7-7-7-0-7--0--7--0--7--7--7--7--7--7--7-----|
G|7--7-7-7-7-7-7-7--7--7--7--6--6--6--6--6--6--6-----|
D|6--6-6-6---6-6-6--6--6--6--5--5--5--5--5--5--5-----|
A|---------------------------------------------------|
E|---------------------------------------------------|
Girl, the answer lies__ with you___yeah          I


 With Rhythm Figure 2 (stop Figure at *)
 Distorted
e|---------------------------------------------------------------------|
B|----------------------------------------------------------3---2------|
G|-----------------------------------x----------------------2---2------|
D|5-7h------7p5-5------5~~------5p0--x---4~~4-0-4p0-x-----0-4---2--x-x-|
A|0-----0-0-0------(0)-0---0--0-0------0-0--0-0-0---x--0--0-----0--x-x-|
E|---------------------------------------------------------------------|
      (pm............)   (pm)                        (pm)
Catch the wind,see us spin,sail away,leave today,way up high in the sky_Hey, Oh, but the

e|--------------------------------------------------------------------|
B|----------------------------------------------------------3---2-----|
G|----------------------------------------------------------2---2--2--|
D|5-7h-------7p5-----5~~-------5p0-x---4~------4-4p0-x-x-2--4---2--2--|
A|0-----0--0-0----0--0----0--0-0---x-0----0--0-0-0---x-x-0--0---0--0--|
E|--------------------------------------------------------------------|
      (pm)              (pm)            (pm)           (pm)
wind won't blow,we really should'nt go, it only goes to__show__Yeah__that


e|----------------------------------------0----------------------------|
B|4--4-4-4-4--4----4-----4-----4-----4----0---4------(2)---------------|
G|4--4-4-4-4--4----4-----4-----4-----4----1---4-------3----------------|
D|4--4-4-4-4--4----4-----4--------------x-2---4-------4----------------|
A|2--2-2-2-2--2-0-----0-----------------x-2---2--(0)--4----------------|
E|--------------------------4-----4-------0-----------2----------------|
you will be mine_     by  tak-ing our_time.__       Ooh_______________

e|-------------------------------------------------------------|
B|(5)-----------------------------------------------9-9--------|
G|-6-------------------------------------9-9--------9-9--------|
D|-7-------------------------------------9-9--------9-11-------|
A|-7--------------------2----------------9-11------------------|
E|-5--------------3b----0--------------------------------------|
____

e|--------------------------------------------------------------------------------|
B|--------7---------------------9----9-9--------------------7---------------------|
G|--7---7-7-----9-(9)-(9)-----9-9----9-9--------------7---7-7------9-(9)-(9)------|
D|7-7---7-9-----9--9---9---x--9-9----9-11-----------7-7---7-9-x----9--9---9---x-x-|
A|7-9-----------7--7---7---x--9-11------------------7-9-------x----7--7---7---x-x-|
E|-------------(0)-9---0------------------------------------------(0)-0---0-------|


e|-------------------------------------------------------------------|
B|----------9-9--------------------------------7-7---------9--9------|
G|9-(9)-x-x-9-9--x-x-x-x-x-x-x-x-x-------7-(x)-7-7-x-------9--9------|
D|9-(9)-x-x-9-11-x-x-x-x-x-x-x-x-x-------7-(x)-7-9-x-----9-9--9--x-x-|
A|9-11h-x-x------x-x-x-x-x-x-x-x-x---7/9-9-(x)-----x-----7-7--7--x-x-|
E|---------------------------------0-----------------0-x-0-0--0----x-|
                  Hey___          Ho____                  Well,the

e|------------------------------------------------------------------|
B|--------9-9-9-------------------------------7-7---------9--9------|
G|9-(9)-x-9-9-9--x-x-x-x-x-x-x-x-x(7)-7-7-x-x-7-7-x-------9--9------|
D|9-(9)-x-9-9-11-x-x-x-x-x-x-x-x-x-7--7-7-x-x-7-9-x-----9-9--9--x-x-|
A|9-11h-x--------x-x-x-x-x-x-x-x-x-9--7-9-x-x-----x-----7-7--7--x-x-|
E|--------------------------------------------------0-x-0-0--0----x-|
wind whon't blow,and you really shoul'nt go,well it only goes to show. Oh_ oh oh

e|-------------------------------------------------------------|
B|-------9-9--x--------------------------7--------------9--9---|
G|9-9----9-9--x-x-x-x-x-x-x-x-x-x-7-7~~x-7-7-x-----9-9--9--9---|
D|9-9----9-11-x-x-x-x-x-x-x-x-x-x-7-7~~x-7-9-x---9-9-9--9--9-9-|
A|9-11----------x-x-x-x-x-x-x-x-x-7-9~~x-----x-7-7-7-7--7--7-9-|
E|---------------------------------------------0---0-0--0--0---|
Catch the wind,we're gonna see you spin,we're gonna sail_ leave to day_


e|------------------------------------------------------------------|
B|-------9-9------------------------------7-7--------------9--9-----|
G|9-9-~~~9-9--x-x-x-x-x-x-x-x-x-9\-7-7--x-7-7(7)----(9)-9--9--9-----|
D|9-9-~~~9-11-x-x-x-x-x-x-x-x-x-9\-7-7--x-7-9p7----9-9--9--9--9-----|
A|9-11~~~-----x-x-x-x-x-x-x-x-x----7-9--x--------7-7-7--7--7--7--9--|
E|-----------------------------------------------0---0--0--0--0-----|
   Ah,du du du, mm ba, ba, mm du_oh                            (pm)


e|-------------------------------------------------------------|
B|---------9-9------------------------------7(7)-------9--9----|
G|9(9)-~~x-9-9--x-x-x-x-x--x-x-x----7-------7-7----9---9--9----|
D|9-9--~~x-9-11-x-x-x-x-x--x-x-x----7-7-7-7-7-9----9-9-9--9----|
A|9-11h~~x------x-x-x-x-x--x-x-x-7--7-9-9-9------7-7-7-7--7----|
E|------------------------------(0)--------------0---0-0--0----|
Ma  Ma  Ma  Ma  Ma Ma     Yeah!__                         Evry'-


e|---------------------------------------------------------------|
B|-------x-9-9-----------------------------7-7-7-------9--9--9---|
G|9(9)---x-9-9--x-x-x-x-x-x-x-x-x----7-7~~~7-7-7-----9-9--9--9---|
D|9-9------9-11-x-x-x-x-x-x-x-x-x(7)-9-9~~~7-9-7-----9-9--9--9---|
A|9-11h---------x-x-x-x-x-x-x-x-x-7--7-9~~~------7-7-7-7--7--7-9-|
E|--------------------------------7--------------0-0---0--0--0---|
                                                             (pm)
body I know seems to know me well,but ah they better know gonna move like hell_


e|-----------------------------------------------------------------|
B|----------9-9-------------------------------7-7--------9--9--9---|
G|9-9-------9-9--x-x-x-x-x--x-x-(x)---7-7-7---7-7------9-9--9--9---|
D|9-9-----9-9-11-x-x-x-x-x--x-x-(x)---7-7-7-7-7--------9-9--9--9---|
A|9-11-11--------x-x-x-x-x--x-x-(x)-7-7-9-9-7------7-7-7-7--7--7-9-|
E|-------------------------------------------------0-0---0--0--0---|
                                                               (pm)
Ah, baby, baby, baby, baby, baby, baby,_   Ho, I love_ya!


                                                     Fade out
e|-----------------------------------------------------------|
B|-------9-9-------------------------------------9-9--9--9---|
G|9-9-~~~9-9--(x)-x-x--x--x-x-x--7(7)~~7-7-7-----9-9--9--9---|
D|9-9-~~~9-11-(x)-x-x--x--x-x-x--7(7)~~7-9-7-----9-9--9--9---|
A|9-11~~~-----(x)-x-x--x--x-x-x--7-9h~~------7-7-7-7--7--7-9-|
E|-------------------------------------------0-0------0--0---|
                                                         (pm)
Baby, baby, babe!___    Oh,____           I love__ ya__­



************************************

()=optional note(s)
/=slide up
\=slide down
p=pull off
(pm)=palm mute
x=finger mute
~=vibrato
h=hammer
b=bend 1/2 step
^=bend 1/4 step

************************************
Suggest correction
comments
print report bad tab
11 comments total. Showing first comments.
0 reply
Surf3r 10 wrote on December 21 2005, 06:38 pm

Very good.

0 reply
Klara 31 wrote on June 3 2006, 08:09 pm

thanks for the transcrption im think of doing an acoustic version of this song and this tab is gonna help me loads!

0 reply
FleshyLeper2 10 wrote on April 13 2007, 09:30 am

Yes very good

guest
You may want to rate the tab now too:
select rating
Wanna post a correction for this tab? Suggest correction