Oops, an error
Loading. Please wait.

What Is And What Should Never Be bass

version 4
version 4

Whole song

Interactive

8,339 views 12 this week
1 commentread comment
1 2 3 4 5
x 6
add to favorites
×
Save as Personal and add changes to this tab that will be seen only by you. Learn more ›
×
You can save this tab as Personal to edit and correct it or add notes. All changes will be seen only by you. Learn more »
launch autoscroll
font size
0
reset
guitar tuner
backing track
0:00
0:00
edit
Autoscroll
slow
fast
+/-
esc
set tempo
stop
Author
Difficulty
Title: What Is And What Should Never Be
Artist: Led Zeppelin
Album: Led Zeppelin II


Track 1: Bass (John Paul Jones)

1 Verse 1
G|-----------------|---------------------------------------|------------9---------------|
D|------------2--/-|-7---------7---------------------------|------9/-11----11-----9-----|
A|-----------------|-----7/-9-----9--7--0-------0--4----0--|-7--------------------------|
E|-----------------|---------------------------------------|----------------------------|
  And if I say to you tomorrow...

4
G|-------------------------------------------|------------9---------------|
D|-7---------7-------------------------------|------9/-11----11-----9-----|
A|-----7/-9-----9--7--0-------0--4--4-----4--|-7--------------------------|
E|-------------------------------------------|----------------------------|

G|-----------------------------------------|
D|-7---------7-----------------------------|
A|-----7/-9-----9--7--0-------0--4---5--6--|
E|-----------------------------------------|

7                                                                          
G|------------9---------------|-------------------------------------------|
D|------9/-11----11-----9-----|-7---------7-------------------------------|
A|-7--------------------------|-----7/-9-----9--7--0-------0--4--3--2--1--|
E|----------------------------|-------------------------------------------|
                                                                           

  Chorus 1
G|-----------------------------------------------|
D|-----------7-----------5-----------5-----------|
A|-0---0--0-----0-----0-----0--0--0-----0-----0--|
E|-----------------------------------------------|
  Catch the wind, see us spin...

10
G|-------------------------------------------|-----------------------------------------------|
D|-4-----------4-----------2--X--1---0-------|-----------7-----------5-----------5-----------|
A|----0--0--0-----0-----0----------------3---|-0---0--0-----0-----0-----0--0--0-----0-----0--|
E|-------------------------------------------|-----------------------------------------------|

12
G|-------------------------------------------|-----------4-----------2-----------2-----------|
D|-4-----------4-----------2--0--------------|-----------------------------------------------|
A|----0--0--0-----0-----0----------4--2--0---|-2---2--2-----2-----2-----2--2--2-----2-----2--|
E|-------------------------------------------|-----------------------------------------------|

14
G|-1-----------1---------------------------|--------|---------------------------|--------|
D|-------------------------4--2----1-------|--------|---------------------------|--------|
A|----2--2--2-----2-----2--------------2---|--------|-0--------2/-3/-4-----2----|--------|
E|-----------------------------------------|-2------|---------------------------|-0------|

18 Verse 2
G|-----------------|-------------------------------------------|---------------9---------------|
D|------------2--/-|-7---------7-------------------------------|---------9/-11----11-----9-----|
A|-----------------|-----7/-9-----9--7--0-------0--4--5-----6--|-7-----------------------------|
E|-----------------|-------------------------------------------|-------------------------------|
  And if you say to me tomorrow...

21
G|-----------------------------------------|------------9---------------|
D|-7---------7-----------------------------|------9/-11----11-----9-----|
A|-----7/-9-----9--7--0-------0--4------0--|-7--------------------------|
E|-----------------------------------------|----------------------------|


G|-------------------------------------------|
D|-7---------7-------------------------------|
A|-----7/-9-----9--7--0-------0--4--5-----6--|
E|-------------------------------------------|


24                                                                         
G|------------9---------------|-------------------------------------------|
D|------9/-11----11-----9-----|-7---------7--------7----------------------|
A|-7--------------------------|-----7/-9-----9--7----------0--4--3--2--1--|
E|----------------------------|-------------------------------------------|

  Chorus 2
G|-----------------------------------------------|
D|-----------7-----------5-----------5-----------|
A|-0---0--0-----0-----0-----0--0--0-----0-----0--|
E|-----------------------------------------------|

27
G|-----------------------------------------|-----------------------------------------------|
D|-4-----------4-----------2--0------------|-----------7-----------5-----------5-----------|
A|----0--0--0-----0-----0----------4---2---|-0---0--0-----0-----0-----0--0--0-----0-----0--|
E|-----------------------------------------|-----------------------------------------------|

29
G|-------------------------------------------|-----------4-----------2-----------2-----------|
D|-4-----------4-----------2--0--------------|-----------------------------------------------|
A|----0--0--0-----0-----0----------4--2--0---|-2---2--2-----2-----2-----2--2--2-----2--2--2--|
E|-------------------------------------------|-----------------------------------------------|

31
G|-1-----------1---------------------------|--------|-------------------------------|
D|-------------------------4--2----1-------|--------|--------------------2--4-------|
A|----2--2--2-----2-----2--------------2---|--------|--------------2/-4--------2----|
E|-----------------------------------------|-2------|-2-/-5-------------------------|

34          Guitar Solo
G|--------|-----------------|-------------------------------------------|
D|--------|------------2--/-|-7---------7-------------------------------|
A|--------|-----------------|-----7/-9-----9--7--0-------0--4--5-----6--|
E|-0------|-----------------|-------------------------------------------|

G|--------------9--------------------------|
D|-----9--/--11-----11----9----6--9-----6--|
A|-7---------------------------------------|
E|-----------------------------------------|


38
G|----------------------------------------|--------------9---11/13---11-9------|
D|-7-----------7--------------------------|-----9--/--11-------------------11--|
A|------7/-9---------9--7--4-----5-----6/-|-7----------------------------------|
E|----------------------------------------|------------------------------------|

G|--------------------------------|
D|-7----7--6----------------------|
A|--------------9--7-----------7--|
E|----------------------7/-9------|

41
G|----------------------------------|-----------------------------------|
D|---------------------------5/-7---|-7--------9/-11-9\-7---------------|
A|-------------2--4---7-------------|-----------------------9--7--------|
E|-0---/---4------------------------|-----------------------------9--7--|


G|-------------------------------------------------|
D|-------------7-----------5-----------5-----------|
A|-0--0--0--0-----0-----0-----0--0--0-----0-----0--|
E|-------------------------------------------------|

44
G|-----------------------------------------|-----------------------------------------------|
D|-4-----------4-----------2--0------------|-----------7-----------5-----------5-----------|
A|----0--0--0-----0-----0----------4---2---|-0---0--0-----0-----0-----0--0--0-----0-----0--|
E|-----------------------------------------|-----------------------------------------------|

46
G|---------------------------------------------|-------------4-----------2-----------2-----------|
D|-4-----------4-----------2--0----------------|-------------------------------------------------|
A|----0--0--0-----0-----0----------4--2--0--1--|-2-----2--2-----2-----2-----2--2--2-----2-----2--|
E|---------------------------------------------|-------------------------------------------------|

48
G|-1-----------1---------------------------|----------------|--------------------------------|
D|-------------------------4--2----1-------|----------------|-----------------2---4p-2-------|
A|----2--2--2-----2-----2--------------2---|----------------|-0---------2/-4------------2----|
E|-----------------------------------------|-2------------2-|--------------------------------|

51          Verse 3
G|--------|-----------------|----------------------------------------|------------9---------------|
D|--------|------------2--/-|-7----------7---------------------------|------9/-11----11-----9-----|
A|--------|-----------------|------7/-9-----9-----0--4---5--6-----0--|-7--------------------------|
E|-0------|-----------------|----------------------------------------|----------------------------|
           So if you wake up with the sunrise...

55
G|-------------------------------------------|---------------9---------------|
D|-7---------7-------------------------------|---------9/-11----11-----9-----|
A|-----7/-9-----9--7--0-------0--4--5-----6--|-7-----------------------------|
E|-------------------------------------------|-------------------------------|


G|-------------------------------------------|
D|-7---------7-------------------------------|
A|-----7/-9-----9--7--0-------0--4--5-----6--|
E|-------------------------------------------|

58                                                                           
G|---------------9---------------|-------------------------------------------|
D|---------9/-11----11-----9-----|-7---------7--------7-------0--------------|
A|-7-----------------------------|-----7/-9-----9--7-------------4--3--2--1--|
E|-------------------------------|-------------------------------------------|

  Chorus 3
G|-------------------------------------------------|
D|-------------7-----------5-----------5-----------|
A|-0-----0--0-----0-----0-----0--0--0-----0-----0--|
E|-------------------------------------------------|

61
G|-----------------------------------------|-----------------------------------------------|
D|-4-----------4-----------2--0------------|-----------7-----------5-----------5-----------|
A|----0--0--0-----0-----0----------4---2---|-0---0--0-----0-----0-----0--0--0-----0-----0--|
E|-----------------------------------------|-----------------------------------------------|

63
G|-------------------------------------------|-----------4-----------2-----------2-----------|
D|-4-----------4-----------2--0--------------|-----------------------------------------------|
A|----0--0--0-----0-----0----------4--2--0---|-2---2--2-----2-----2-----2--2--2-----2-----2--|
E|-------------------------------------------|-----------------------------------------------|

65
G|-1-----------1---------------------------|--------|----------------------------------|
D|-------------------------4--2----1-------|--------|-----------------2-----2h-4-------|
A|----2--2--2-----2-----2--------------2---|--------|-0---------2h-4--------------2----|
E|-----------------------------------------|-2------|----------------------------------|

68
G|--------|--------|--------|--------|-----------------|---------------------------|
D|--------|--------|--------|--------|-----------------|-----------6h-7------------|
A|--------|--------|--------|--------|-----------------|-5h-7----------------------|
E|-0------|--------|--------|--------|------------0----|---------------------------|

74
G|----------------------------------------|-------------------------------------|
D|-----------5p-4-------------------------|-----------6h-7----------------------|
A|-4h-5---------------7-------------------|-5h-7-----------------------------4--|
E|--------------------------7-----7--0----|-------------------------------------|
                                           Well the wind won't blow and we really shouldn't go...

G|--------------------------------------------|
D|-----------5p-4-----------------------------|
A|-4h-5----------------7-----5---6--7---------|
E|------------------------7------------7------|

77
G|----------------------------|-------------------------------------|-------------------------|
D|-----------6h-7-------------|-----------5p-4----------------------|-----------6h-7----------|
A|-5h-7-----------------------|-4h-5----------------7---------------|-5h-7--------------------|
E|----------------------------|------------------------7---0--------|-------------------------|

80
G|-----------------------------------------------|--------------------------------|
D|-----------5h-4--------------9-----------------|-----------6h-7-----------------|
A|-4h-5---------------7-----7-----7--7--7--7-----|-5h-7-----------------------17-\|
E|-----------------------------------------------|--------------------------------|
                                                  Ma ma ma ma mama yeah...

82
G|-----------------------------------|---------------------------------------------|
D|------------5h-4-------------------|-----------6h-7--------------------7---------|
A|-4h-5------------------7-----------|-5h-7---------------------7-----7-----7------|
E|--------------------------7---0----|---------------------------------------------|
                                      Everybody I know seems to know me well...

84
G|---------------------------------------------|-----------------------------------------------|
D|-----------5p-4------------------------------|-------------6h-7--------------------7--7------|
A|-4h-5---------------7-----7-----7------------|-5h-7-----7-----------------------7------------|
E|-----------------------7-----------7--0------|-----------------------------------------------|

85                                                  Fade out...
G|-------------------------------------------------|-------------------------|
D|-------------5--4--3--2--------------------------|-----------6h-7----------|
A|-4h-5-----5-----------------0--2--0--------------|-5h-7---7----------------|
E|-------------------------------------3\-2--0--0--|-------------------------|
  Baby, baby, baby, baby...

G|---------------------------------------------|
D|-----------5p-4------------------------------|
A|-4h-5-------------7-----6--5--4--3-----------|
E|------------------------------------6--5--3--|

            
            
Suggest correction
Creating personal tab
Creating personal tab
You can edit any tab online and save it as your Personal.

You can edit, replace or remove any tab part or add personal notes – all changes will be seen only by you.

Personal tabs can be accessed anytime from any device, even offline.
Learn more »
comments
print report bad tab
1 comment total.
0 reply
ayreon77 21,833 Jul 22, 2014 07:08 AM

looks spot on, and easy to follow to the track too, nice 1

guest
You may want to rate the tab now too:
select rating
Wanna post a correction for this tab? Suggest correction