Oops, an error
Loading. Please wait.
We have an official Whole Lotta Love tab made by UG professional guitarists. Check out the tab »
×
471,635 views 795 this week
15 commentsread comments
1 2 3 4 5
x 24
add to favorites
launch autoscroll
font size
0
reset
how to read this tab
guitar tuner
backing track
0:00
0:00
Autoscroll
slow
fast
+/-
esc
set tempo
stop
[Intro/Verses]

E|------------------------------|----------------------------------|
B|------------------------------|----------------------------------|
G|------------------------------|----------------------------------|
D|---0----0--2-------2-------2--|-------2-------2-------2-------2--|
A|-2----2-----------------------|----------------------------------|
E|-------------0-0-0---0-0-0----|-0-0-0---0-0-0---0-0-0---0-0-0----|


[Chorus]

E|-------------------|
B|-------------------|
G|-------------------|
D|-0-0-0-0-0----9\---| x4
A|-----------7-------|
E|-------------------|


[Main Riff]

E|---------------------------------------------------------------------------|
B|---------------------------------------------------------------------------|
G|-----------------9--------9--------9---------------------------------------|
D|-----------------9--------9--------9---------------------------------------|
A|--------5----5---7--------7--------7---------------------------------------|
E|--(5)/7----7-------0-0-0----0-0-0------------------------------------------|


[Solo]

E|-------------12--------------------------------------|
B|----10/12-------15--12-------------------------------|
G|------------------------15p14p12--14p12--14/(16)-----|
D|-----------------------------------------------------|
A|-----------------------------------------------------|
E|-----------------------------------------------------|

E|-------------------------------------------------|
B|-------------------------------------------------|
G|-2/4---4p2--0--2p0-0--2p0------------------------|
D|---------------------------2p0--2p0--------------|
A|-------------------------------------2-----------|
E|---------------------------------------------0---|

E|----------12-10/(12)--12--15--10/(12)-|-12 15/(19)/15--12----15p12-|
B|-10/(12)--12--------------------------|-------------------14-------|
G|--------------------------------------|----------------------------|
D|--------------------------------------|----------------------------|
A|--------------------------------------|----------------------------|
E|--------------------------------------|----------------------------|

E|----19/(21)-19---18-17--15-----15-----|---------------------------17-19----|
B|-17------------------------17-----17--|---17-19-19/(21)--19/(21)--------17-|
G|--------------------------------------|------------------------------------|
D|--------------------------------------|------------------------------------|
A|--------------------------------------|------------------------------------|
E|--------------------------------------|------------------------------------|

E|--------------|---------------|
B|--------------|---------------|
G|--------------|---------------|
D|----0---0-----|---------------|
A|----5~--5~-7--|-7-7-7---7-7-7-|
E|--7---7----0--| 0-0-0---0-0-0-|

********************************
| h - Hammer on
| p - Pull off
| / - slide up
| \ - slide down
|(n)- Ghost note
| ~ - Vibrato
********************************
Suggest correction
comments
print report bad tab
15 comments total. Showing first comments.
0 reply
Steve_da_dark 45 Apr 17, 2002 08:00 PM

this tab is amazing. The solo is spot on. Nice on zappp

+1 reply
kohler 10 May 25, 2002 08:00 PM

u'll find its easier if u play it

7575 on the low E for the bit after the intro instread of

-5-5
7-7-

0 reply
Ionic 10 Mar 25, 2004 07:00 PM

I like pie

guest
Wanna post a correction for this tab? Suggest correction