Oops, an error
Loading. Please wait.

Whole Lotta Love Tab

version 4
version 4
62,844 views 267 this week
no commentswrite comment
1 2 3 4 5
accurate
x 6
add to favorites
launch autoscroll
font size
0
reset
how to read this tab
guitar tuner
Autoscroll
slow
fast
+/-
esc
set tempo
stop
Help us to improve Ultimate-Guitar.com Take our survey!
×
Author
Jerk 3,253
Led Zeppelin - Whole Lotta Love
Transcribed by Victor Ochoa
Standard Tuning


E|--------|----------------|----------------|----------------|----------------|
B|--------|----------------|----------------|----------------|----------------|
G|--------|----------------|----------------|----------------|----------------|
D|--------|9---9---9---9---|9---9---99------|9---9---9---9---|9---9---99------|
A|---5--5-|7---7---7---7---|7---7---77-5--5-|7---7---7---7---|7---7---77-5--5-|
E|--7--7--|0000000000000000|00000000007--7--|0000000000000000|00000000007--7--|
                                                                      You need
E| |----------------|----------------|----------------|
B| |----------------|----------------|----------------|
G|o|----------------|----------------|----------------|
D|o|9---9---99------|9---9---99------|9---9---99------|
A| |7---7---77-5--5-|7---7---77-5--5-|7---7---77-5--5-|
E| |00000000007--7--|00000000007--7--|00000000007--7--|
    coolin' baby I'm not foolin'
    learnin' baby I mean learnin'

E|----------------|----------------|----------------|
B|----------------|----------------|----------------|
G|----------------|----------------|----------------|
D|9---9---99------|9---9---99------|9---9---99------|
A|7---7---77-5--5-|7---7---77-5--5-|7---7---77-5--5-|
E|00000000007--7--|00000000007--7--|00000000007--7--|
  schoolin'
  been yearnin'

E|----------------|----------------|----------------|
B|----------------|----------------|---------777-7-7|
G|----------------|----------------|---------777-7-7|
D|9---9---99------|9---9---99------|9---9---9777-7-7|
A|7---7---77-5--5-|7---7---77-5--5-|7---7---7555-5-5|
E|00000000007--7--|00000000007--7--|000000000-------|
  I'm gonna give you my love        Oh       Wanna whole lotta love

E|----------------|----------------|----------------|
B|---------777-7-7|---------777-7-7|---------777-7-7|
G|---------777-7-7|---------777-7-7|---------777-7-7|
D|9---9---9777-7-7|9---9---9777-7-7|9---9---9777-7-7|
A|7---7---7555-5-5|7---7---7555-5-5|7---7---7555-5-5|
E|000000000-------|000000000-------|000000000-------|
           Wanna...         Wanna...         Wanna...
___________________ _________________
1.                 |2.               |
E|---------------- ||----------------|----------------|
B|---------------- ||----------------|----------------|
G|----------------o||----------------|----------------|
D|9---9---99------o||9---------------|9---------------|
A|7---7---77-5--5- ||7---------------|7---------------|
E|00000000007--7-- ||----------------|----------------|

E|----------------|
B|----------------|
G|---Theremin-----|
D|-----Break------|
A|------37--------|
E|----------------|


  (Guitar 1)
E|----------------|----------------|----------------|
B|----------------|----------------|----------------|
G|9--9------------|9--9------------|9--9------------|
D|9--9------------|9--9------------|9--9------------|
A|7--7------------|7--7------------|7--7------------|
E|----------------|----------------|----------------|
 |                                                  |
 |(Guitar 2)                                        |
E|-------12-------|----------------|-------12----15-|
B|------12-1512---|----------------|------12-1515-15|
G|-----14-----1514|-------7765-----|-----14---------|
D|----------------|-----9----765---|----------------|
A|----------------|------------575-|----------------|
E|----------------|---------------7|0---------------|

  (Guitar 1)
E|----------------|----------------|----------------|
B|----------------|----------------|----------------|
G|9--9------------|9--9------------|9--9------------|
D|9--9------------|9--9------------|9--9------------|
A|7--7------------|7--7------------|7--7-------5--5-|
E|----------------|----------------|----------7--7--|
 |                                                  |
 |(Guitar 2)                                        |
E|----151715---15-|-----19191815---|------------19----|
B|---17-----171517|----17------17--|----17191919---17-|
G|----------------|----------------|------------------|
D|----------------|----------------|------------------|
A|----------------|----------------|------------------|
E|----------------|----------------|------------------|

E|----------------|----------------|----------------|
B|----------------|----------------|----------------|
G|----------------|----------------|----------------|
D|9---9---99------|9---9---99------|9---9---99------|
A|7---7---77-5--5-|7---7---77-5--5-|7---7---77-5--5-|
E|00000000007--7--|00000000007--7--|00000000007--7--|
  coolin' baby I've been droolin'   All the good times...

E|----------------|----------------|----------------|
B|----------------|----------------|----------------|
G|----------------|----------------|----------------|
D|9---9---99------|9---9---99------|9---9---99------|
A|7---7---77-5--5-|7---7---77-5--5-|7---7---77-5--5-|
E|00000000007--7--|00000000007--7--|00000000007--7--|
  misusin'         Way down inside

E|----------------|----------------|----------------|
B|----------------|----------------|----------------|
G|----------------|----------------|----------------|
D|9---9---99------|9---9---99------|9---9---99------|
A|7---7---77-5--5-|7---7---77-5--5-|7---7---77-5--5-|
E|00000000007--7--|00000000007--7--|00000000007--7--|
  I'm gona give....                 Hey

E|----------------|----------------|----------------|----------------|
B|----------------|---------777-7-7|---------777-7-7|---------777-7-7|
G|----------------|---------777-7-7|---------777-7-7|---------777-7-7|
D|9---9---99------|9---9---9777-7-7|9---9---9777-7-7|9---9---9777-7-7|
A|7---7---77-5--5-|7---7---7555-5-5|7---7---7555-5-5|7---7---7555-5-5|
E|00000000007--7--|000000000-------|000000000-------|000000000-------|
                            Wanna...         Wanna...         Wanna...

E|----------------|----------------||----------------|----------------|
B|---------777-7-7|9---------------||----------------|----------------|
G|---------777-7-7|9---------------||----------------|----------------|
D|9---9---9777-7-7|9---------------||----------------|----------------|
A|7---7---7555-5-5|7---------------||----------------|----------------|
E|000000000-------|----------------||----------------|----------------|
                                     Way down        inside___________

E|----------------|----------------|----------------|----------------|
B|----------------|----------------|9---------------|----------------|
G|----------------|----------------|9---6-----------|----------------|
D|----------------|----------------|9---7-----------|----------------|
A|----------------|----------------|7---7-----------|----------------|
E|----------------|----------------|----5-----------|----------------|
  woman            you___need_ yeah                  love____________

E|----------------|----------------|
B|----------------|----------------|
G|----------------|----------------|
D|----------------|----------------|
A|----------------|-----------5--5-|
E|----------------|----------7--7--|

E|----------------|----------------|----------------|
B|----------------|----------------|----------------|
G|----------------|----------------|----------------|
D|9---9---99------|9---9---99------|9---9---99------|
A|7---7---77-5--5-|7---7---77-5--5-|7---7---77-5--5-|
E|00000000007--7--|00000000007--7--|00000000007--7--| 8X then fade
Suggest correction
What's this?
You can suggest a correction to this tab. Community and Mods will review your correction and vote to approve or reject it.
comments
print report bad tab
guest
You may want to rate the tab now too:
select rating
Please do not post tabs as comments. Select "correction" instead!