Oops, an error
Loading. Please wait.

You Shook Me Tab

version 2
version 2

Whole song

Interactive

30,870 views 57 this week
3 commentsread comments
1 2 3 4 5
x 8
add to favorites
launch autoscroll
font size
0
reset
how to read this tab
guitar tuner
backing track
0:00
0:00
Autoscroll
slow
fast
+/-
esc
set tempo
stop
Author
Artist: Led Zeppelin 
Song: You Shook Me
Standard Tuning

E|----------------12--12-10|12----10-7---------------|
B|-------------------------|----------10-8-----------|
G|-------------------------|--------------9---4------|
D|-------------------------|-------------------------|
A|-------------------------|-------------------------|
E|-------------------------|-------------------------|

E|----12-12--11-12-10-------------|------------------------|
B|----------------12-10-12-10-8-9-|----------9--8----------|
G|--------------------------------|9-------9---9-----11-9-8|
D|--------------------------------|------9-----------------|
A|--------------------------------|------------------------|
E|--------------------------------|------------------------|
                                         \3/        \3/

E|--------------------------||------------------------|
B|------9-----4-3-4---------||------------------------|
G|9-----9-----4-3-4---------||------------------------|
D|------9-----4-3-4---------||------------------------|
A|--------------------------||------------------------|
E|----------------0-5---3---||0---0-0---0-0---0-5-5-3-|
                   You know you shook me.....

E|------------------------|------------------------|
B|------------------------|------------------------|
G|------7-9-12------9---7-|---6--5--4--3-----------|
D|----9-------------------|------------------------|
A|------------------------|------------------------|
E|0-----------------------|----------------0-5---3-|

E|------------------------|------------------------|
B|------------------------|------------------------|
G|------------------7-9-12|------9---7-----9---7-5-|
D|----------------9-------|------------------------|
A|------------------------|------------------------|
E|0---0-0---0-0-----------|------------------------|

E|------------------------|------------------------|
B|---9--------------------|------------------------|
G|3-----7-9-12------9---7-|---6--5--4--3-----------|
D|----9-------------------|------------------------|
A|------------------------|------------------------|
E|------------------------|----------------0-5---3-|

E|-------------------------|-------------------------|
B|-------------------------|--------16---------------|
G|----------------16-16--14|16--------16-14--12----9-|
D|-------------------------|-------------------------|
A|-------------------------|-------------------------|
E|0---0-0---0-0------------|-------------------------|

E|----12----10-12-10--------------|-------------------------|
B|----------------12-10-12-10-8-9-|----------9--------------|
G|--------------------------------|9-------9---9-12---9-11--|
D|--------------------------------|------9------------------|
A|--------------------------------|-------------------------|
E|--------------------------------|-------------------------|
                                         \3/

E|--------------------------|------------------------|
B|------9---4-3-4---2-------|------------------------|
G|9---7-9---4-3-4---2-------|------------------------|
D|----7-9---4-3-4---2-------|------------------------|
A|--------------------------|------------------------|
E|----------------0-5-----3-|0---0-0---0-0---0-5---3-|
                  I have a bird that whistles.....

E|--------------------------|------------------------|
B|--9-----------------------|------------------------|
G|--9---7-9-11-12----7-9--7-|---6--5--4--3-----------|
D|----9---------------------|------------------------|
A|--------------------------|------------------------|
E|0-------------------------|----------------0-5---3-|

E|------------------------|------------------------|
B|------------------------|------------------------|
G|------------------7-9-12|------7-9-7----9----7-5-|
D|----------------9-------|------------------------|
A|------------------------|------------------------|
E|0---0-0---0-0-----------|------------------------|

E|------------------------|------------------------|
B|------------------------|------------------------|
G|3-9---7-9-12------9---7-|---6--5--4--3-----------|
D|----9-------------------|------------------------|
A|------------------------|------------------------|
E|------------------------|----------------0-5---3-|

E|---------------------------|--------12-----------------|
B|----------------10-12-12-10|12----9-12-12-10-8---------|
G|---------------------------|---------------------------|
D|---------------------------|---------------------------|
A|---------------------------|---------------------------|
E|0---0-0---0-0--------------|---------------------------|

E|----2-4-2-4--2-2-2-4-2-2-1-9-1-7-1-9-1-7----|-----------------------------|
B|-----------------------------1-7-2-1--------|----------21--20----19--17-16|
G|--------------------------------------------|21------21--21---------------|
D|--------------------------------------------|------21---------------------|
A|--------------------------------------------|-----------------------------|
E|--------------------------------------------|-----------------------------|

                            [Organ Solo]
E|------16-17-18-19-----12--||------------------------|
B|17----------------12--12--||------------------------|
G|--------------------------||------------------------|
D|--------------------------||------------------------|
A|--------------------------||------------------------|
E|--------------------------||0---0-0---0-0---0-5---3-|

E|------------------------|------------------------|
B|------------------------|------------------------|
G|------------------------|------------------------|
D|------------------------|------------------2-----|
A|2---2-4---4-2---0-7---5-|2---2-4---4-2---2-0---5-|
E|0---0-0---0-0---0-5---3-|0---0-0---0-0---0-----3-|

E|------------------------|------------------------|
B|------------------------|------------------------|
G|------------------------|------------------------|
D|------------------------|------------------------|
A|2---2-4---4-2---2-7---5-|7---7-9---9-7-----7---5-|
E|0---0-0---0-0---0-5---3-|5---5-5---5-5---0-5---3-|

E|------------------------|------------------------|
B|------------------------|------------------------|
G|------------------------|------------------------|
D|------------------------|------------------------|
A|7---7-9---9-7---2-7---5-|2---2-4---4-2---2-7---5-|
E|5---5-5---5-5---0-5---3-|0---0-0---0-0---0-5---3-|

E|------------------------|------0-----------------|
B|------------------------|----------0-----0---0---|
G|------------------------|--------2---2---2-2---2-|
D|------------------------|------------------------|
A|2---2-7---7-2---2-2---0-|2---2-2-----------------|
E|0---0-5---5-0---0-0-4---|------------------------|

E|------------------------|------------------------|
B|------------2---2-2---2-|------------------------|
G|------------------------|--------1-----2-----3---|
D|----------2-5---5-2---2-|------------------------|
A|0---0-3-4-----------4---|------2---2-3---3-4---4-|
E|------------------------|0---0-------------------|

E|------------------------|------------------------|
B|------------------0---0-|------------------------|
G|4-------------------2---|------------------------|
D|------------------------|------------------------|
A|5---5---0-1-2---2-2-----|2---2-4---4-2---2-7---5-|
E|------4-----------------|0---0-0---0-0---0-5---3-|

E|------------------------|------------------------|
B|------------------2---0-|------------------2---0-|
G|------------------2---0-|------------------2---0-|
D|------------------2---0-|------------------2---0-|
A|2---2-----2-------0-----|2---2-----2-------0-----|
E|0---0-----0-----------3-|0---0-----0-----------3-|

E|------------------------|------------------------|
B|2-----2-----------------|2---------------------0-|
G|2-----2-----------------|2---------------2-2---0-|
D|2-----2---2-----2-2-----|2-----2---2-2---2-2---0-|
A|0-----0---2-----2-2---5-|0---0-----0-0---0-0-----|
E|----0-----0-----0-0---3-|------------------------|

E|------------------------|------------------------|
B|------------------------|------------------2---0-|
G|2---------0-0-----2---0-|------------------2---0-|
D|2-----2---2-2---2-2---0-|------------------2---0-|
A|0---0-0---0-0---0-0-----|2---2-2---2-2---2-0-----|
E|----------------------3-|0---0-0---0-0---0-----3-|

E|------------------------|--------------------------|
B|------------------------|------0-------0--0--0---0-|
G|------------------------|----------2--2--2--2--2---|
D|2---2-2---2-2---2-------|4---4------4--------------|
A|2---2-2---2-2---2---0-1-|2---2---------------------|
E|0---0-0---0-0---0-4-----|--------------------------|
                                   \3/\3/   \3/

E|------------------------|------------------------|
B|------------------------|--------9-----8-----7---|
G|------------------------|------------------------|
D|----------2-5---5-2---2-|2---2-9---9-8---8-7---7-|
A|0---0-3-4-----------4---|------------------------|
E|------------------------|------------------------|

                              [Guitar Solo]
E|---------------------------||--------------------------|
B|----------------------14-13||------17-15---------------|
G|--------------------13-----||14--15------------16-14-13|
D|6-----------------14-------||--------------------------|
A|---------------------------||--------------------------|
E|------4-5-6----------------||--------------------------|

E|-----------------------------|------------------17--16|
B|-----------------------------|------15----17----------|
G|14-13------13--------13-14-13|16----------------------|
D|------------14-12--14--------|------------------------|
A|-----------------------------|------------------------|
E|-----------------------------|------------------------|

E|------------16--15-12-12-12|21--19-18-17-------------------------19--19-----|
B|---------------------------|-----------20-19-17--17-20-17--17--17-21--19--19|
G|---------------------------|-----------------18------18--18-----------------|
D|---------------------------|------------------------------------------------|
A|---------------------------|------------------------------------------------|
E|---------------------------|------------------------------------------------|

E|-------------------------------19--21-19-18-17-----------------------|
B|20-19-20-19-20-19-21-19-17--17--17-19-21---17--------20-19-17-19-17--|
G|------------------18--18-------------------------------------------18|
D|---------------------------------------------------------------------|
A|---------------------------------------------------------------------|
E|---------------------------------------------------------------------|

E|---------19-----------------------------------------------|
B|17--17-21---19-21--20-19-20-19-20-19-17--17-19-17-19-17-19|
G|--18---------------------------18-------------------------|
D|----------------------------------------------------------|
A|----------------------------------------------------------|
E|----------------------------------------------------------|

E|-----------------------12|17-17-15-12--12------------------|
B|------19--19--19--12-14--|--------15--15-12-15-14-12-14----|
G|18--18--18--18--18-------|------------------------14-------|
D|-------------------------|---------------------------------|
A|-------------------------|---------------------------------|
E|-------------------------|---------------------------------|

E|---------------------------------------------------------|
B|-------------------------------15------------------------|
G|----16-18--14-16-14-16-14-12--12--16---16-14-12--12------|
D|--14------------------14--14-----------14-14-12--14------|
A|16-------------------------------------------------------|
E|---------------------------------------------------------|

E|-------------------------|-------------------------||
B|-------------------------|-------------------------||
G|-------------------------|-------------------------||
D|12-14----14----14----14--|----------14-9-----------||
A|-----14--14-13--12-12--12|11----------------2------||
E|-------------------------|--------------------5-3--||

E|------------------------|------------------------|
B|------------------------|------------------------|
G|------------------------|------7-9-12------9---7-|
D|------------------------|----9-------------------|
A|------------------------|------------------------|
E|0---0-0---0-0---0-5-5-3-|0-----------------------|
  You know you shook me baby.....

E|------------------------|------------------------|
B|------------------------|------------------------|
G|---6--5--4--3-----------|----------------9-7-9-12|
D|------------------------|------------------------|
A|------------------------|------------------------|
E|----------------0-5---3-|0---0-0---0-0-----------|

E|------------------------|------------------------|
B|------------------------|---9--------------------|
G|------9---7-----9---7-5-|3-----7-9-12------9---7-|
D|------------------------|----9-------------------|
A|------------------------|------------------------|
E|------------------------|------------------------|

E|------------------------|------------------------------------|
B|------------------------|------------------------------------|
G|---6--5--4--3-----------|----------------12-12-10-12-10-12-10|
D|------------------------|------------------------------------|
A|------------------------|------------------------------------|
E|----------------0-5---3-|0---0-0---0-0-----------------------|

E|------------17--15----14|12----------------------|
B|12----16--17------------|------------19--20----19|
G|--------16--------------|------------------------|
D|------------------------|------------------------|
A|------------------------|------------------------|
E|------------------------|------------------------|

E|-------------------------------------|-------------------------------|
B|19-17-15-17-15--19-19-17-15-17-15--19|19-17-15-17-15----23----17-17--|
G|-------------------------------------|-------------------------------|
D|-------------------------------------|-------------------------------|
A|-------------------------------------|-------------------------------|
E|-------------------------------------|-------------------------------|

E|----------------------------|-------------------------|
B|------------23-21-23-21-23--|17-17--------------------|
G|----------------------------|-------------------------|
D|----------------------------|-------------------------|
A|----------------------------|-------------------------|
E|----------------------------|-------------------------|

E|----------------------------|------------------------|
B|12--------------------------|(12)--------------------|
G|16-15-16-15-16--------------|(16)--------------------|
D|----------------------------|------------------------|
A|----------------------------|------------------------|
E|----------------------------|------------------------|

E|------------------------|------------------------|
B|(12)--------------------|(12)--------------------|
G|(16)--------------------|(16)--------------------|
D|------------------------|------------------------|
A|------------------------|------------------------|
E|------------------------|------------------------|

E|------------------------|------------------------|
B|------------------------|------------------------|
G|------------------------|------------------------|
D|------------------------|------------------------|
A|------------------------|------------------------|
E|------------------------|------------------------|

E|--------------------12-14|15-14-15-14-15-14-12--12-------|
B|----------------12-14----|---------------14--------------|
G|-------------------------|-------------------2-----------|
D|-------------------------|-------------------1-----------|
A|-------------------------|-------------------3-----------|
E|-------------------------|------------------0-1----------|

E|------------------------|------------------------|
B|------------------------|------------------------|
G|1-----------------------|(1)---------------------|
D|0-----------------------|(0)---------------------|
A|2-----------------------|(2)---------------------|
E|0-----------------------|(0)---------------------|
Suggest correction
comments
print report bad tab
3 comments total.
+1 reply
chris4 40 Dec 20, 2005 10:11 AM

Thanks alot man good tab

0 reply
AdayTripper 30 Jul 31, 2006 05:28 PM

Awesome. The notes could be spaced further, and more lyrics would make it perfect.

0 reply
jmy73 10 Mar 16, 2010 05:10 AM

14, 12, 14, 12, 14, 12, 14
b d e g e d e

14, 12, 14, 12, 14, 12
b d e g e d

I have a bird that whistles
I have a bird that sings

guest
You may want to rate the tab now too:
select rating
Wanna post a correction for this tab? Suggest correction