Oops, an error
Loading. Please wait.

Your Time Is Gonna Come tab

version 1
version 1

Whole song

Interactive

68,836 views 54 this week
13 commentsread comments
1 2 3 4 5
x 30
add to favorites
×
Save as Personal and add changes to this tab that will be seen only by you. Learn more ›
×
You can save this tab as Personal to edit and correct it or add notes. All changes will be seen only by you. Learn more »
launch autoscroll
font size
0
reset
how to read this tab
guitar tuner
edit
Autoscroll
slow
fast
+/-
esc
set tempo
stop
Author
Unregistered
Your Time Is Gonna Come  
Led Zeppelin

|--------2----3---0|-----3---0--------|
|------3-----3---3-|----3---3----3--3-|o
|----2------0---0--|---0---0----------|
|--0---------------|------------03-03-|
|----------3---3---|----------03------|o
|------------------|--3---3-----------|
   1 . 2 . 3 . 4 .    1 . 2 . 3 . 4 .  
 
        changing to this:

|--------5----7---5|-----3---3---5---3|
|------7-----5---5-|----5---5---3---3-|
|----7------6---6--|---5---5---4---4--|  D                    G
|--0-------0---0---|--0---0---0---0---|   "Your time is gonna come."
|------------------|------------------|
|------------------|------------------|
   1 . 2 . 3 . 4 .    1 . 2 . 3 . 4 .

            
            
Suggest correction
Creating personal tab
Creating personal tab
You can edit any tab online and save it as your Personal.

You can edit, replace or remove any tab part or add personal notes – all changes will be seen only by you.

Personal tabs can be accessed anytime from any device, even offline.
Learn more »
comments
print report bad tab
13 comments total. Showing first comments.
+3 reply
smellyjosh 236 Sep 01, 2004 08:00 PM

great tab, but its led zeppelin, not zeppeling. a zeppelin is a type of blimp that nazis used in ww2, and it is not a verb in which the present tense form is ' to zeppel'.

0 reply
slowhand dan 10 Feb 24, 2006 08:00 AM

this tab gets right to the point, with no crap at the begininglike all the other tabs. basic, simple, right. oh, and to the guy who wrote the last comment,v you almost made me sufogate from laghfter.

0 reply
guitarded32 40 Jun 01, 2006 11:53 AM

i think on the main part where you put
---------
---33-33-
---------
---03-03-
-03------
---------

i think it is actually
-------------
-----3-3-3-3-
-------------
-----0-3-0-3-
-0-2---------
-------------
great tab though

guest
Wanna post a correction for this tab? Suggest correction