Oops, an error
Loading. Please wait.

Your Time Is Gonna Come tab

version 3
version 3

Whole song

Interactive

1,312 views 6 this week
no commentswrite comment
1 2 3 4 5
1 last vote to show rating
add to favorites
×
Save as Personal and add changes to this tab that will be seen only by you. Learn more ›
×
You can save this tab as Personal to edit and correct it or add notes. All changes will be seen only by you. Learn more »
launch autoscroll
font size
0
reset
how to read this tab
guitar tuner
edit
Autoscroll
slow
fast
+/-
esc
set tempo
stop
Author
Difficulty
--------------------------------------------------------------------------------------
                        Your Time Is Gonna Come - Led Zeppelin
--------------------------------------------------------------------------------------

Tuning:    Standard
Tabbed by: Xplisit

All credits to privettricker for his cover and lesson. 
I tabbed his version of the song: 
https://www.youtube.com/watch?v=FT4FfhNH8kE

I know it's not 100% correct, but I love the sound of it.

 -------------
 Intro & Verse 
 -------------

e|---------2--------|--------3---------0--|---------3----------0--|------------------|
B|-----------3---3--|---------------------|-----------------------|------------------|
G|----2--------2----|------0---------0----|-------0----------0----|------------------|
D|-0----------------|----0---------0------|-----0----------0------|-------0-3b-0-3b--|
A|------------------|-(3)-------(3)-------|-(2)--------(2)--------|--0h2-------------|
E|------------------|---------------------|-----------------------|------------------|

 ------------
 "Pre-Chorus"
 ------------

e|---------5--------|--------7---------5--|---------3----------0--|--------5---p0----|
B|-----------7---7--|------5---------5----|-------5----------5----|------3---3----3--|
G|----7--------7----|----6---------6------|-----5----------5------|----4-------------|
D|-0----------------|-(0)-------(0)-------|-(0)--------(0)--------|-(0)--------------|
A|------------------|---------------------|-----------------------|------------------|
E|------------------|---------------------|-----------------------|------------------|

 ------
 Chorus
 ------
                                                  
e|-2-2---3-2-0-2--3-3--3--3-3-3-3-3-3-3-3-3-3--|--0h2-- <- Hammer-on the first D,
B|-3-3---3-3-3-3--3-3--3--3-3-3-3-3-3-3-3-3-3--|--3----    continue by the same
G|-2-2---2-2-2-2--0-0--0--0-0-0-0-0-0-0-0-0-0--|--0h2-- <- pattern. 
D|-0-0---0-0-0-0--0-0--0--0-0-0-0-0-0-0-0-0-0--|--0----    
A|-0-0---0-0-0-0--2-2--2--2-2-2-2-2-2-2-2-2-2--|--0----    Strumming is approximate
E|-2-2---2-2-2-2--3-3--3--3-3-3-3-3-3-3-3-3-3--|--2----

  Your  time   is  go - nna come     
   D    Dsus4  D  Dsus2  D   G    

 ------
 Bridge
 ------
 
Between the chorus and 2nd verse, there's a short tapping part. 

e|-2-2-2-2-2-2-2-2--|-3-3-3-3-3-3-3-3--|-3-3-3-3-3-3-3-3-3-3-3--|--1----1--1-------|
B|-3-3-3-3-3-3-3-3--|-3-3-3-3-3-3-3-3--|-3-3-3-3-3-3-3-3-3-3-3--|--1----1--1-------|
G|-2-2-2-2-2-2-2-2--|-0-0-0-0-0-0-0-0--|-0-0-0-0-0-0-0-0-0-0-0--|--2----2--2-------|
D|-0-0-0-0-0-0-0-0--|-2-2-2-2-2-2-2-2--|-0-0-0-0-0-0-0-0-0-0-0--|--3----3--3-------|
A|-0-0-0-0-0-0-0-0--|-3-3-3-3-3-3-3-3--|-2-2-2-2-2-2-2-2-2-2-2--|--3----3--3-------|
E|-2-2-2-2-2-2-2-2--|------------------|-3-3-3-3-3-3-3-3-3-3-3--|--1----1--1-------|


Intro 2x
Verse 7x
Pre-Chorus
Chorus 2x
Bridge
Verse 7x
Pre-Chorus
Chorus 10x
Suggest correction
Creating personal tab
Creating personal tab
You can edit any tab online and save it as your Personal.

You can edit, replace or remove any tab part or add personal notes – all changes will be seen only by you.

Personal tabs can be accessed anytime from any device, even offline.
Learn more »
Give kudos to tab author, rate the tab!
1 2 3 4 5
comments
print report bad tab
guest
You may want to rate the tab now too:
select rating
Wanna post a correction for this tab? Suggest correction