Oops, an error
Loading. Please wait.

Wine Glass ukulele

58 views 1 this week
no commentswrite comment
1 2 3 4 5
3 more votes to show rating
add to favorites
×
Save as Personal and add changes to this tab that will be seen only by you. Learn more ›
×
You can save this tab as Personal to edit and correct it or add notes. All changes will be seen only by you. Learn more »
launch autoscroll
font size
0
reset
transpose
0
reset
display chords
guitar tuner
edit
Autoscroll
slow
fast
+/-
esc
set tempo
stop
Difficulty
Strumming
There is no strumming pattern for this song yet. and get +5 IQ
This is really the acoustic version, but its very similar to the album version. 
Please note, the x2 means play through twice....obviously.

Make sure to tune half step down!!!



Here are the chords she uses, forgive the naming of them! When she strums the C 
chord in second verse/bridge she tends to hammer on/ pull off on D string.

G |3|  C|3|  Em/G|3|  F#/G|3|
  |3|   |3|      |3|      |3|
  |0|   |0|      |0|      |2|
  |0|   |2|      |2|      |0|
  |2|   |3|      |2|      |0|
  |3|   |x|      |0|      |2|



Intro

   G                 G                 C                 C

e|-3-----3-----3---|-3-----3-----3---|-3-----3-----3---|-3-----3-----3---|
b|---3-----3-----3-|---3-----3-----3-|---3-----3-----3-|---3-----3-----3-|
g|-----0-----0-----|-----0-----0-----|-----0-----0-----|-----0-----0-----|
d|-----------------|-----------------|-----------------|-----------------|
a|-----------------|-----------------|-3-----3---------|-3-----3---------|
e|-3---------------|-3---------------|-----------------|-----------------|

   Em/G              F#/G              C   
 
e|-3-----3-----3---|-3-----3-----3---|-3-----3-----3---|-3---------------|
b|---3-----3-----3-|---3-----3-----3-|---3-----3-----3-|-----------------|
g|-----0-----0-----|-----2-----2-----|-----0-----0-----|-----------------|
d|-----------------|-----------------|-----------------|-----------------|
a|-2---------------|-----------------|-3---------------|-3---------------|
e|-----------------|-2---------------|-----------------|-----------------|

Verse

   G                 G                 C                 C

e|-3-----3-----3---|-3-----3-----3---|-3-----3-----3---|-3-----3-----3---|
b|---3-----3-----3-|---3-----3-----3-|---3-----3-----3-|---3-----3-----3-|
g|-----0-----0-----|-----0-----0-----|-----0-----0-----|-----0-----0-----|
d|-----------------|-----------------|-----------------|-----------------|
a|-----------------|-----------------|-3-----3---------|-3-----3---------|
e|-3---------------|-3---------------|-----------------|-----------------|

   G                 G                 C                 C

e|-3-----3-----3---|-3-----3-----3---|-3-----3-----3---|-3-----3-----3---|
b|---3-----3-----3-|---3-----3-----3-|---3-----3-----3-|---3-----3-----3-|
g|-----0-----0-----|-----0-----0-----|-----0-----0-----|-----0-----0-----|
d|-----------------|-----------------|-----------------|-----------------|
a|-----------------|-----------------|-3-----3---------|-3-----3---------|
e|-3---------------|-3---------------|-----------------|-----------------|


   Em/G              F#/G              C   

e|-3-----3-----3---|-3-----3-----3---|-3-----3-----3---|-3-----3-----3---|
b|---3-----3-----3-|---3-----3-----3-|---3-----3-----3-|---3-----3-----3-|
g|-----0-----0-----|-----2-----2-----|-----0-----0-----|-----0-----0-----|
d|-----------------|-----------------|-----------------|-----------------|
a|-2---------------|-----------------|-3---------------|-3---------------|
e|-----------------|-2---------------|-----------------|-----------------|

   Em/G              F#/G              C   

e|-3-----3-----3---|-3-----3-----3---|-3-----3-----3---|-3-----3-----3---|
b|---3-----3-----3-|---3-----3-----3-|---3-----3-----3-|---3-----3-----3-|
g|-----0-----0-----|-----2-----2-----|-----0-----0-----|-----0-----0-----|
d|-----------------|-----------------|-----------------|-----------------|
a|-2---------------|-----------------|-3---------------|-3---------------|
e|-----------------|-2---------------|-----------------|-----------------|


Chorus [x 2] (and I'll put everything into you) 

e|-3-----3-----3---|-3-----3-----3---|-3-----3-----3---|-3-----3-----3---|
b|---3-----3-----3-|---3-----3-----3-|---3-----3-----3-|---3-----3-----3-|
g|-----0-----0-----|-----2-----2-----|-----0-----0-----|-----0-----0-----|
d|-----------------|-----------------|-----------------|-----------------|
a|-----------------|-----------------|-3---------------|-3---------------|
e|-3---------------|-2---------------|-----------------|-----------------|



Verse 2 - chords are lightly strummed as opposed to picking.

  G                                C
I love the way you always laugh at me 

       G                                C
And you love the way I dance so awkwardly

      Em/G             F#/G               C
And I watch you and I want you all the time

      Em/G              F#/G                C
And I love the way you hold your wine glass too.


(Chorus x 2)


Bridge

        Em/G             F#/G               C
But sometimes I wish you weren't so far away

        Em/G             F#/G               C
And sometimes I wish you weren't so far away
     
     Em/G                 F#/G
Sometimes I wish you weren't so far away

         G                      F#/G
All that I have to give, I will give you it all

        C  
'Cos I love you, you know I will give you it all


         G                      F#/G
All that I have to give, I will give you it all

        C  
'Cos I love you, you know I will give you it all


Outro (quieter strumming)

    G            F#/G           C
And I'll put everything into you

    G            F#/G           C
And I'll put everything into you

     G            F#/G           C
I can't see anything else but you
  
       G                 F#/G               C
And I love the way you hold your wine glass too.



Enjoy!

www.leddrachapman.com

            
            
Suggest correction
Creating personal tab
Creating personal tab
You can edit any tab online and save it as your Personal.

You can edit, replace or remove any tab part or add personal notes – all changes will be seen only by you.

Personal tabs can be accessed anytime from any device, even offline.
Learn more »
Give kudos to tab author, rate the tab!
1 2 3 4 5
comments
print report bad tab
guest
Wanna post a correction for this tab? Suggest correction