Oops, an error
Loading. Please wait.

A Woman Like You Tab

8,324 views 27 this week
no commentswrite comment
1 2 3 4 5
please rate
add to favorites
launch autoscroll
font size
0
reset
how to read this tab
guitar tuner
Tab Pro tools
  • play this tab
  • loop segment
  • change instrument
  • show fretboard
  • metronome
×
Best way to learn
"A Woman Like You"
Autoscroll
slow
fast
+/-
esc
set tempo
stop
Difficulty
Capo
intermediate
5th fret
Intro to "A Woman Like You" Tabbed By Robert Leatherman

Note: Capo on 5th fret


          D          "riff"          Bm(grip)
       dn  up

 -------2--2---------7----3----------2------------------------|
 -------3--3---------7----5----------3-------------3----------|
 -------2--2---------5----4----------4--------4----------4----|
 ----0--------0--------0-----0-------4-----4----4-----4-------|
 ------------------------------------2---2-----------------2--|
 -------------------------------------------------------------|



     G
    G/D(grip)

 ----0--------------------------------------------------------|
 ----3----3h5----------5--3----------3------------------------|
 ----0-----------0-------------0------------------------------|
 ----0--------0-------------0---------------------------------|
 ----x--------------------------------------------------------|
 ----3----3--------3------3-------3---------------------------|




     Em
   Em/f#(grip)

 ----2----2H3----------3--------------------------------------|
 ----0--------------------------------------------------------|
 ----0-----------0--------------------------------------------|
 ----2--------2------------2----------------------------------|
 ----2--------------------------------------------------------|
 ----0----0--------0------------------------------------------|



     A
   A(grip)

 ----0----0h2--------0----------------------------------------|
 ----2----------2---------------------------------------------|
 ----2--------------------------------------------------------|
 ----2--------2-----------------------------------------------|
 ----0----0--------0------------------------------------------|
 ----x--------------------------------------------------------|
comments
We did not receive enough feedback on this tab! Please rate:
print report bad tab
1 2 3 4 5
I want to post or [tab]
guest
You may want to rate the tab now too:
select rating
Please do not post tabs as comments. Select "correction" instead!