Oops, an error
Loading. Please wait.

Blade Of Grass chords

49 views 1 this week
no commentswrite comment
1 2 3 4 5
2 more votes to show rating
add to favorites
×
Save as Personal and add changes to this tab that will be seen only by you. Learn more ›
×
You can save this tab as Personal to edit and correct it or add notes. All changes will be seen only by you. Learn more »
launch autoscroll
font size
0
reset
transpose
0
reset
simplify chords
display chords
guitar tuner
edit
Autoscroll
slow
fast
+/-
esc
set tempo
stop
Author
Difficulty
Strumming
There is no strumming pattern for this song yet. and get +5 IQ
From the demo performance: https://www.youtube.com/watch?v=p-0jmuWcf4E

[Intro]
D      Dsus4   D
D      Dsus4   D    D/C

   C                            D     D   D/C
e|-0-0-0-1-3-3/5~-3-1-h-3-p-1-0-2--|
B|-1----------------------------3--|
G|-0----------------------------2--|
D|-2----------------------------0--|
A|-3-------------------------------|
E|---------------------------------|

   C                            D     D     D/C
e|-0-0-0-1-3-3/5~-3-1-h-3-p-1-0-2--|
B|-1----------------------------3--|
G|-0----------------------------2--|
D|-2----------------------------0--|
A|-3-------------------------------|
E|---------------------------------|

[Verse 1]
D                               D/C
The summer long to whisper pain
D
lay me down inside the rain
D                            D/C
pretty soon this day will pass
D                             
all of us every blade of grass

[Chorus]
   C                            D     
e|-0-0-0-1-3-3/5~-3-1-h-3-p-1-0-2--|
B|-1----------------------------3--|
G|-0----------------------------2--|
D|-2----------------------------0--|
A|-3-------------------------------|
E|---------------------------------|

D                   D/C
But I wanna stay Mary
   C                            D     
e|-0-0-0-1-3-3/5~-3-1-h-3-p-1-0-2--|
B|-1----------------------------3--|
G|-0----------------------------2--|
D|-2----------------------------0--|
A|-3-------------------------------|
E|---------------------------------|

D              D/C
i wanna be true
   C                            G     
e|-0-0-0-1-3-3/5~-3-1-h-3-p-1-0-3--|
B|-1----------------------------3--|
G|-0----------------------------0--|
D|-2----------------------------0--|
A|-3----------------------------2--|
E|------------------------------3--|

G                   
I gotta killer who loves me
G                     D
Yeah yeah who loves you
D      Dsus4   D

[Verse 2]
D                               
Little shivers that make me blue
D                             D/C
From the cross you nailed me to
D                              D/C
Now I'm back down on the ground
D                              
On the streets of your hometown

[Chorus]
   C                            D     
e|-0-0-0-1-3-3/5~-3-1-h-3-p-1-0-2--|
B|-1----------------------------3--|
G|-0----------------------------2--|
D|-2----------------------------0--|
A|-3-------------------------------|
E|---------------------------------|

D                   D/C
But I wanna stay Mary
   C                            D     
e|-0-0-0-1-3-3/5~-3-1-h-3-p-1-0-2--|
B|-1----------------------------3--|
G|-0----------------------------2--|
D|-2----------------------------0--|
A|-3-------------------------------|
E|---------------------------------|

D              D/C
i wanna be true
   C                            G     
e|-0-0-0-1-3-3/5~-3-1-h-3-p-1-0-3--|
B|-1----------------------------3--|
G|-0----------------------------0--|
D|-2----------------------------0--|
A|-3----------------------------2--|
E|------------------------------3--|

G                   
I gotta killer who loves me
G                     D
Yeah yeah who loves you
D      Dsus4   D

[Bridge]
C
I'm a fool to love you
G
I'm a fool to love you
C
I'm a fool to love you 
     G               D
yeah yeah yeah yeah
D                            D/C
all of us every blade of grass
D                            D/C
all of us every blade of grass
D                            Dsus4
all of us every blade of grass
D
all of us every blade of grass
   C                            D     D     D/C
e|-0-0-0-1-3-3/5~-3-1-h-3-p-1-0-2--|
B|-1----------------------------3--|
G|-0----------------------------2--|
D|-2----------------------------0--|
A|-3-------------------------------|
E|---------------------------------|
   C                            D     D     D/C
e|-0-0-0-1-3-3/5~-3-1-h-3-p-1-0-2--|
B|-1----------------------------3--|
G|-0----------------------------2--|
D|-2----------------------------0--|
A|-3-------------------------------|
E|---------------------------------|
   C                            G     G    D   Dsus4  D   
e|-0-0-0-1-3-3/5~-3-1-h-3-p-1-0-3--|
B|-1----------------------------3--|
G|-0----------------------------0--|
D|-2----------------------------0--|
A|-3----------------------------2--|
E|------------------------------3--|

[Verse 3]
D
All the good times will come true
D
Tomorrow I'm gonna party with you
D
Pretty soon this life will pass
D
all of us every blade of grass

[Chorus]
   C                            D     
e|-0-0-0-1-3-3/5~-3-1-h-3-p-1-0-2--|
B|-1----------------------------3--|
G|-0----------------------------2--|
D|-2----------------------------0--|
A|-3-------------------------------|
E|---------------------------------|

D                   D/C
But I wanna stay Mary
   C                            D     
e|-0-0-0-1-3-3/5~-3-1-h-3-p-1-0-2--|
B|-1----------------------------3--|
G|-0----------------------------2--|
D|-2----------------------------0--|
A|-3-------------------------------|
E|---------------------------------|

D              D/C
yeah i wanna be true
   C                            G     
e|-0-0-0-1-3-3/5~-3-1-h-3-p-1-0-3--|
B|-1----------------------------3--|
G|-0----------------------------0--|
D|-2----------------------------0--|
A|-3----------------------------2--|
E|------------------------------3--|

G                   
I gotta killer inside me
G                     D
Yeah yeah who loves you
D      Dsus4   D

[Outro]
C
Yeah yeah 
C            D
who loves you
D                             D/C
all of us every blade of grass
D                             D/C
all of us every blade of grass
D                             D/C
all of us every blade of grass
D
all of us every blade of grass

************************************
| h   Hammer-on
| p   Pull-off
| /   Slide up
| ~   Vibrato
************************************

            
            
Suggest correction
Creating personal tab
Creating personal tab
You can edit any tab online and save it as your Personal.

You can edit, replace or remove any tab part or add personal notes – all changes will be seen only by you.

Personal tabs can be accessed anytime from any device, even offline.
Learn more »
Give kudos to tab author, rate the tab!
1 2 3 4 5
comments
print report bad tab
guest
You may want to rate the tab now too:
select rating
Wanna post a correction for this tab? Suggest correction