Oops, an error
Loading. Please wait.

Hey Hey Hey chords

40 views 1 this week
no commentswrite comment
1 2 3 4 5
3 more votes to show rating
add to favorites
×
Save as Personal and add changes to this tab that will be seen only by you. Learn more ›
×
You can save this tab as Personal to edit and correct it or add notes. All changes will be seen only by you. Learn more »
launch autoscroll
font size
0
reset
transpose
0
reset
simplify chords
display chords
guitar tuner
edit
Autoscroll
slow
fast
+/-
esc
set tempo
stop
Author
Difficulty
Strumming Is this strumming pattern correct? Yes No
Whole song 80 bpm
1
 
&
 
2
 
&
 
Listen
[Intro]

   Em       C       G          D
e|----------------------------------------|
B|----------------------------------------|
G|----------------------------------------|
D|------------------------0---------------|
A|----------3------------------------0----|
E|-0----2-3---------3----------2----------|

   Em       C       G 
e|----------------------------------------|
B|----------------------------------------|
G|----------------------------------------|
D|------------------------0---------------|
A|----------3-----------------------------|
E|-0----2-3---------3----------3----------|
  
N.C.

[Verse 1] 
            Em  C
Hey hey hey
       G                   D    Dsus2
Didn't I lead the last parade
            Em  C
Hey hey hey
              G                 D    Dsus2
With all your lovers and your slaves
             Em             C
When there’s no one left to follow me
G           D
I just fall away 
           Em    C
so come on baby
            G
What do you say?
N.C.

[Verse 2]
            Em  C
Hey hey hey
       G                  D    Dsus2
When I’m busted and I'm broke
            Em  C
Hey hey hey
           G                   D    Dsus2
Would you give this heart some hope
             Em             C
I’ve been looking for a way out
       G              D
And a way back in to you
           Em    C
So come on baby
            G
What do you say?

[Chorus]
C      G      
Ah     hell it’s alright
B7                   C
We can’t find a way tonight
C          G            D    Dsus2  D  Dsus2
We’ll just lie here anyway
C           G
We’ll burn out the love light
B7                      C
Til the morning comes around
C       G            D    Dsus2  D  
And sweeps us both away
N.C.

[Verse 3]
            Em  C
Hey hey hey
       G                  D    Dsus2
Will you love me anyway
           Em    C
Hey hey hey
           G                  D    Dsus2
After my song has had its day
           Em                 C
When your wheels are spinning in the dust
    G                    D
and all your dreams have turned to rust 
           Em    C
oh baby
              G
What do you say?

[Chorus]
C      G      
Ah     hell it’s alright
B7                   C
We can’t find a way tonight
C          G            D    Dsus2  D  Dsus2
We’ll just lie here anyway
C           G
We’ll burn out the love light
B7                     C
Til the morning comes around
C       G            D    Dsus2  D  
And sweeps us both away
N.C.

[Verse 4]
            Em  C
Hey hey hey
              G                    D    Dsus2
Why don’t you tell me one more time?
            Em  C
Hey hey hey
              G                    D    Dsus2
Cause I’m a sucker for your lines
        Em                C
It’s a shame the world is so fucked up
 G             D
So are you and I
           Em    C
So c’mon baby
           Em    C
C’mon baby
           Em    C
C’mon baby
           G
What you say?

[Outro]
   Em       C       G          D
e|----------------------------------------|
B|----------------------------------------|
G|----------------------------------------|
D|------------------------0---------------|
A|----------3------------------------0----|
E|-0----2-3---------3----------2----------|

   Em       C       G 
e|----------------------------------------|
B|----------------------------------------|
G|----------------------------------------|
D|------------------------0---------------|
A|----------3-----------------------------|
E|-0----2-3---------3----------3----------|

            
            
Suggest correction
Creating personal tab
Creating personal tab
You can edit any tab online and save it as your Personal.

You can edit, replace or remove any tab part or add personal notes – all changes will be seen only by you.

Personal tabs can be accessed anytime from any device, even offline.
Learn more »
Give kudos to tab author, rate the tab!
1 2 3 4 5
comments
print report bad tab
guest
You may want to rate the tab now too:
select rating
Wanna post a correction for this tab? Suggest correction