Oops, an error
Loading. Please wait.

Dont Worry My Dear tab

6,115 views 42 this week
1 commentread comment
1 2 3 4 5
x 4
add to favorites
×
Save as Personal and add changes to this tab that will be seen only by you. Learn more ›
×
You can save this tab as Personal to edit and correct it or add notes. All changes will be seen only by you. Learn more »
launch autoscroll
font size
0
reset
how to read this tab
guitar tuner
edit
Autoscroll
slow
fast
+/-
esc
set tempo
stop
Author
Don't worry my dear (걱정말아요 그대)
cover by Lee Juck (이적)
tutorial by youtube channel: Caffeineguitar
transcribed, edited, and submitted by: Slee78
from the OST: Reply 1988 
I do not own any part of the song.
Youtube Tutorial that I based this tab from: https://www.youtube.com/watch?v=E4oI-d-gC2c 

[Intro]
                             1st     2nd
   A      Bm/A     A         Bm/A       Dm    E/D    D
e|[9---9---7---7---5---5-----|7---7---:||5-----4-----2]
B|[--------------------------|--------:||-------------]
G|[9-9---9-7-7---7-6-6---6---|7-7---7-:||6-----4-----2]
D|[--------------------------|--------:||0--0--0--0--0]
A|[0-------0-------0---------|0-------:||-------------]
E|[--------------------------|--------:||-------------]


[Verse 1]

  Aadd9   E/G#  F#m11 Esus4   D     E   Asus4 Aadd9    Dadd9   C#m7  F#m11 Esus4 B7/D#
e|[---0------0------0-----0--|---2-----4-----0-----7--|---0-----4---|---0-----0-----2]
B|[--0------0------0-----0---|--3-----0-----0-----0---|--7-----0----|--0-----0-----0-]
G|[-6------4------2-----2----|-2-----4-----7-----6----|-7-----4-----|-2-----2-----2--]
D|[7------6------4-----2-----|0-----------7-----7-----|0------------|4-----2-----1---]
A|[--------------------------|------------------------|------4------|------0---------]
E|[--------------------------|------0-----------------|-------------|------0---------]

[Chorus 1]
                 
  Aadd9 E/G# F#m11  Esus4   D     E     Asus4 Aadd9 
e|[---0-----0-----0-----0--|---2-----4-----0-----7---|
B|[--0-----0-----0-----0---|--3-----0-----0-----0----|
G|[-6-----4-----2-----2----|-2-----4-----7-----6-----|
D|[7-----6-----4-----2-----|0-----------7-----7------|
A|[------------------------|-------------------------|
E|[------------------------|------0------------------|

  Aadd9  E/G# F#m11  C#m9    D     E   Asus4 Aadd9   (Fm7     G you can strum)
e|[---0-----0-----0-----0--|---2-----4-----0-----0--|---0-------]
B|[--0-----0-----0-----4---|--3-----0-----0-----0---|--1------0-]
G|[-6-----4-----2-----4----|-2-----4-----7-----6----|-2------0--]
D|[7-----6-----4-----------|0-----------7-----7-----|3------0---]
A|[------------------4-----|------------------------|-------2---]
E|[------------------------|-------0----------------|-------3---]


 [VERSE 2] *This verse, you can begin strumming or keep picking
  C      G/B   Am   Am/G    Fm7   G   Csus4   C     Fm7    Em7       Am   Am/G  F#m7b5
e|---0-----------0--------|---0----------1----0-----|---0-----3-----|---0-----0-----0]
B|1-----3---3-1-----0--0--|--1------0----1----1-----|--1------3-----|---1-----1-----1]
G|--0------0------2---0---|-2------0------- 0-------|-2------0------|--2-----0-----2-]
D|-2------0-----2----2----|3------0-----2-----------|3------0-------|-2-----2-----0--]
A|3-----2-----0-----0-----|3-----2-----3------------|------2--------|0-----0---------]
E|------------------3-----|1-----3------------------|------0--------|------3-----2---]

[Chorus 2]
  C    G/B   Am   Am/G    Fm7    G   Csus4   C     G
e|0-----------0-----0-----|0-----------1-----0------|
B|1-----3-----1-----1-----|1-----0-----1-----1-----0|
G|0-----0-----2-----0-----|2-----0-----0-----------0|
D|2-----0-----2-----2-----|3-----0-----2-----2-----0|
A|3-----2-----0-----0-----|3-----2-----3-----3-----2|
E|------------------3-----|1-----3-----------------3|

  C    G/B   Am     Em    Fm7    G   Csus4   C    Asus4   A
e|0-----------0-----0-----|0-----------1-----0-----|0-----0]
B|1-----3-----1-----0-----|1-----0-----1-----1-----|3-----2]
G|0-----0-----2-----0-----|2-----0-----0-----------|2-----2]
D|2-----0-----2-----2-----|3-----0-----2-----2-----|2-----2]
A|3-----2-----0-----2-----|3-----2-----3-----3-----|0-----0]
E|------------------0-----|1-----3-----------------|-------]


[Chorus 3]
  D Aadd9/C# Bm11   A      G   Asus4 Dsus4   D   Asus4   A
e|2-----0-----0-----0-----|------0-----3-----2-----0-----0--|
B|3-----0-----3-----2-----|0-----3-----3-----3-----3-----2--|
G|2-----2-----2-----2-----|0-----2-----2-----2-----2-----2--|
D|0-----------0-----2-----|0-----2-----0-----0-----2-----2--|
A|------4-----2-----------|2-----0-----------------0--------|
E|------------------------|3--------------------------------|

  D Aadd9/C# Bm11 Dsus2/F# G   Asus4 Dsus4   D   B7sus4  B7
e|2-----0-----0-----0-----|------0-----3-----2-----2-----2--|
B|3-----0-----3-----3-----|0-----3-----3-----3-----5-----4--|
G|2-----2-----2-----2-----|0-----2-----2-----2-----2-----2--|
D|0-----------0-----0-----|0-----2-----0-----0-----4-----4--|
A|------4-----2-----------|2-----0-----------------2-----2--|
E|------------------2-----|3--------------------------------|


 [LAST CHORUS(4)]
  E   B/D#  C#m7    B      A     E   F3m7 B7sus4  B7
e|0-----------0-----2-----|0-----0-----------2-----2|
B|0-----4-----5-----4-----|2-----0-----2-----5-----4|
G|1-----4-----4-----4-----|2-----1-----2-----2-----2|
D|2-----4-----------4-----|2-----2-----2-----4-----4|
A|2-----6-----4-----2-----|0-----2-----------2-----2|
E|0-----------------------|------0-----2------------|

  E   B/D#  C#m7 Eadd9/G#  A    B/A  C#m7 F#7sus4  A    B/A
e|0-----------0-----0-----|0-----0-----0-----0-----0-----0]
B|0-----4-----5-----0-----|2-----4-----5-----0-----2-----4]
G|1-----4-----4-----4-----|2-----4-----4-----3-----2-----4]
D|2-----4-----------4-----|2-----4-----------4-----2-----4]
A|2-----6-----4-----------|0-----0-----4-----4-----0-----0]
E|0-----------------4-----|------------------2------------]


CHORDS

[Verse 1]
Aadd9      E/G#    F#m11  Esus4
그대여 아무 걱정 하지 말아요
     D   E   Asus4 Aadd9 
우리 함께 노래 합시다
Dadd9               C#m7  
그대 아픈 기억들 모두 그대여
F#m11      Esus4    B7/D#
그대 가슴에 깊이 묻어 버리고

[Chorus 1]
Aadd9   E/G# F#m11  Esus4  
지나간 것은    지나간 대로
 D      E       Asus4 Aadd9 
그런 의미가 있죠
Aadd9   E/G# F#m11  C#m9    
떠난 이에게    노래   하세요
D       E         Asus4 Aadd9  |   Fm7     G
후회없이 사랑했노라 말해요

[Verse 2]
 C         G/B      Am   Am/G    
그대는 너무 힘든 일이 많았죠
Fm7      G      Csus4   C     
새로움을 잃어 버렸죠
Fm7                 Em7  
그대 슬픈 얘기들 모두 그대여
Am        Am/G      F#m7b5
그대 탓으로 훌훌 털어 버리고

[Chorus 2]
C       G/B   Am      Am/G    
지나간 것은    지나간 대로
Fm7     G      Csus4   C  G
그런 의미가 있죠
C        G/B   Am  Em    
우리 다 함께    노래 합시다
Fm7     G         Csus4 C  |  Asus4   A
후회없이 꿈을 꾸었다 말해요

[Chorus 3]
D      Aadd9/C#  Bm11    A     
지나간 것은       지나간 대로
G       Asus4  Dsus4 D Asus4 A
그런 의미가   있죠
D        Aadd9/C# Bm11 Dsus2/F# 
우리 다 함께        노래 합시다
G       Asus4      Dsus4   D  |  B7sus4  B7
후회없이 꿈을 꾸었다 말해요

[Chorus 4]
E  B/D#    C#m7    B      A     
지~  나간 것은    지나간 대로
  E     F3m7    B7sus4  B7
그런 의미가    있죠
E     B/D#    C#m7   Eadd9/G#  
  우리 다 함께    노래 합시다
A       B/A        C#m7 
후회없이 꿈을 꾸었다 말해요
F#7sus4  A          B/A
새로운    꿈을 꾸겠다 말해요

            
            
Suggest correction
Creating personal tab
Creating personal tab
You can edit any tab online and save it as your Personal.

You can edit, replace or remove any tab part or add personal notes – all changes will be seen only by you.

Personal tabs can be accessed anytime from any device, even offline.
Learn more »
comments
print report bad tab
1 comment total.
0 reply
isaack1124 10 Jun 04, 2017 08:32 PM

Great Tab and chords but some of the tabs are wrong. But overall 5 stars

guest
You may want to rate the tab now too:
select rating
Wanna post a correction for this tab? Suggest correction