Oops, an error
Loading. Please wait.

We Stand Tab

845 views 1 this week
1 commentread comment
1 2 3 4 5
not so good
x 3
add to favorites
launch autoscroll
font size
0
reset
how to read this tab
guitar tuner
Tab Pro tools
  • play this tab
  • loop segment
  • change instrument
  • show fretboard
  • metronome
Autoscroll
slow
fast
+/-
esc
set tempo
stop
Contributor
Difficulty
intermediate
Here are the guitar effects used:

Lead Guitar: Gibson Les Paul (Guitar 1)
Heavy Distortion throughout

Rhythm Guitar: Fender Stratocaster (Guitar 2)
Heavy Distortion throughout
400 ms Delay for chorus and verses
Phaser with no Rate/Key mid intensity/level for verses

For intro/solo lead plays a part then Rhythm plays a chord twice.

Intro:
Guitar 1
e---------------------------------------|
B---------------------------------------|
G---------------------------------------|
D-7h9-999-7h9-999-7h9-999-7h9-999-------|
A---------------------------------------|
E---------------------------------------|

Guitar 2
e--------------|
B--------------|
G--------------|
D-9-9----------|
A-9-9----------|
E-7-7----------|

Guitar 1
e-----------------------|
B-----------------------|
G-----------------------|
D-7h9-999-7h9-999-7h9---|
A-----------------------|
E-----------------------|

Guitar 2
e-----------|
B-----------|
G-----------|
D-9-9-------|
A-9-9-------|
E-7-7-------|

Guitar 1
e------------|
B------------|
G------------|
D-7h9--------|
A------------|
E------------|

Guitar 2
e---------|
B---------|
G---------|
D-9-9-----|
A-9-9-----|
E-7-7-----|

Guitar 1: (doesn't play)

Guitar 2:
e-----------------------------------------------------|
B-----------------------------------------------------|
G------------777777777--99999999----------------------|
D-99999999---777777777--99999999----------------------|
A-99999999---555555555--77777777----------------------|
E-77777777------------------------------------Repeat--|
  ----------------------------------------------------| PM

Chorus: Both Guitars
e-------------------------------------|
B-------------------------------------|
G-7-9999--------7-9999----------------|
D-7-9999-7-9999-7-9999-9-7-9-7-9------|
A-5-7777-7-9999-5-7777-9-7-9-7-9------|
E--------5-7777--------7-5-7-5-7------|

e-------------------------------------|
B-------------------------------------|
G-7-9999--------7-9999----------------|
D-7-9999-7-9999-7-9999-7-9999---------|
A-5-7777-7-9999-5-7777-7-9999---------|
E--------5-7777--------5-7777---------|

Repeat Intro

Same Verse pattern

same chorus

(cant figure out solo)

Bridge same as chorus

David Beam
Davidbeam47@yahoo.com for questions and comments
comments
We did not receive enough feedback on this tab! Please rate:
print report bad tab
1 2 3 4 5
1 comment total.
0 reply
badkins510 wrote on January 3 2012, 04:31 pm

I love this song! I'm trying to learn the solo.

I want to post or [tab]
guest
You may want to rate the tab now too:
select rating
Please do not post tabs as comments. Select "correction" instead!