Oops, an error
Loading. Please wait.

Dyon-Anaswa Bass Tab

474 views 1 this week
no commentswrite comment
1 2 3 4 5
3 more votes to show rating
add to favorites
launch autoscroll
font size
0
reset
guitar tuner
Autoscroll
slow
fast
+/-
esc
set tempo
stop
Help us to improve Ultimate-Guitar.com Take our survey!
×
LEE SCRATCH PERRY & THE UPSETTERS - DYON-ANASWA
ALBUM: RETURN OF THE SUPER APE (1978)
BASSIST: ASTON "FAMILY MAN" BARRETT

VERSE

E --5-5-5------------5-5-5------------5-5-5------------------------------|
A --------7-7--7-----------7-7--7-----------7-7--7------5-5-5------------|
D ---------------7-7--------------7-7--------------7-7--------7-7--7-----|
G -------------------------------------------------------------------7-7-|

VARIATIONS

E --5-5-5------------5-5-5------------5-5-5--------------------------------|
A --------7-7--7-----------7-7--7-----------7-7--7------5-5-5--------------|
D -------7--------7-7------7--------7-7----7---------7-7--------7-7--7-----|
G -------------------------------------------------------------7------7-7--|

TU RU TU RU TU RU RU!!!!
JAH WOBBLE IS GOD!!!
Suggest correction
Give kudos to tab author, rate the tab!
1 2 3 4 5
comments
print report bad tab
guest
You may want to rate the tab now too:
select rating
Wanna post a correction for this tab? Suggest correction