Oops, an error
Loading. Please wait.

Fox Rain Tab

version 1
version 1

Whole song

26,486 views 1 this week
no commentswrite comment
1 2 3 4 5
please rate
add to favorites
launch autoscroll
font size
0
reset
how to read this tab
guitar tuner
Autoscroll
slow
fast
+/-
esc
set tempo
stop
Help us to improve Ultimate-Guitar.com Take our survey!
×
Contributor
Difficulty
novice
(/) Slide Up  (\) Slide Down  (h) Hammer On  (p) Pull Off  (b) Bend (r) Release (v) Vibrato

E|--------5--5--3--1--3----------|
B|--1--3-----------------3/5-----|
G|----------------------------5--|
D|-------------------------------|
A|-------------------------------|
E|-------------------------------|



E|-------------------------------|
B|-----5--5--6--6--6/8--6--6/10--|
G|--5----------------------------|
D|-------------------------------|
A|-------------------------------|
E|-------------------------------|



E|------------------------------------------------|
B|--4--6--6/10--10--10--10--10--8--6--5--6--8--6--|
G|------------------------------------------------|
D|------------------------------------------------|
A|------------------------------------------------|
E|------------------------------------------------|



E|-------------------------|
B|--6--3--5--6--6/8--8/10--|
G|-------------------------|
D|-------------------------|
A|-------------------------|
E|-------------------------|



E|--------5--5--3--1--3----------|
B|--1--3-----------------3/5-----|
G|----------------------------5--|
D|-------------------------------|
A|-------------------------------|
E|-------------------------------|



E|-------------------------------|
B|-----5--5--6--6--6/8--6--6/10--|
G|--5----------------------------|
D|-------------------------------|
A|-------------------------------|
E|-------------------------------|



E|----------------------------------------------------|
B|--4--6--6/10--10--10--10--10--10--8--6--5--6--8--6--|
G|----------------------------------------------------|
D|----------------------------------------------------|
A|----------------------------------------------------|
E|----------------------------------------------------|



E|--------------------|
B|--6--3--5--6--8--6--|
G|--------------------|
D|--------------------|
A|--------------------|
E|--------------------|



E|--------5--5--3--1--1/8--------|
B|--1--3-------------------8--8--|
G|-------------------------------|
D|-------------------------------|
A|-------------------------------|
E|-------------------------------|




E|-------------------------------------|
B|--6--5--3--5--6--6/8--8--8--6--6/10--|
G|-------------------------------------|
D|-------------------------------------|
A|-------------------------------------|
E|-------------------------------------|



E|----------------------------------------------------|
B|--4--6--6/10--10--10--10--10--10--8--6--5--6--8--6--|
G|----------------------------------------------------|
D|----------------------------------------------------|
A|----------------------------------------------------|
E|----------------------------------------------------|



E|----------------------------|
B|--10--8--6--10--8--6--5--6--|
G|----------------------------|
D|----------------------------|
A|----------------------------|
E|----------------------------|


E|---------------------------|
B|--6--7--7/10v--8--4--8--6--|
G|---------------------------|
D|---------------------------|
A|---------------------------|
E|---------------------------|


E|-----8--6--6--5--3--1--3--8------|
B|--8--------------------------10--|
G|---------------------------------|
D|---------------------------------|
A|---------------------------------|
E|---------------------------------|


E|--------------------------------------------------------------8-----|
B|--10--10--8--8--8--10--8--6--5--6--8--6--6/10--10---10--8--10----8--|
G|--------------------------------------------------------------------|
D|--------------------------------------------------------------------|
A|--------------------------------------------------------------------|
E|--------------------------------------------------------------------|


E|--------5--5--3--1--3----------|
B|--1--3-----------------3/5-----|
G|----------------------------5--|
D|-------------------------------|
A|-------------------------------|
E|-------------------------------|





E|-------------------------------|
B|--------5--6--6--6/8--6--6/10--|
G|--4--5-------------------------|
D|-------------------------------|
A|-------------------------------|
E|-------------------------------|



E|--------------------------------------------|
B|--8--9--8/10--10--10--10--8--6--5--6--8--6--|
G|--------------------------------------------|
D|--------------------------------------------|
A|--------------------------------------------|
E|--------------------------------------------|



E|----------------------------|
B|--10--8--6--10--8--6--5--6--|
G|----------------------------|
D|----------------------------|
A|----------------------------|
E|----------------------------|

Chorus
E|-----------------------5-----|
B|--6--5--6--5--6--5--6-----6--|
G|-----------------------------|
D|-----------------------------|
A|-----------------------------|
E|-----------------------------|



E|-----------------------8--5--|
B|--6--5--6--5--6--5--6--------|
G|-----------------------------|
D|-----------------------------|
A|-----------------------------|
E|-----------------------------|



E|--------------5--------------5--------------5-----------------8--5--|
B|--6--5--6--5-----6--5--6--5-----6--5--6--5-----6--5--6--5--6--------|
G|--------------------------------------------------------------------|
D|--------------------------------------------------------------------|
A|--------------------------------------------------------------------|
E|--------------------------------------------------------------------|



E|-----------------5-----|
B|--6--5--6--5--6-----6--|
G|-----------------------|
D|-----------------------|
A|-----------------------|
E|-----------------------|



E|-----------------8--5--|
B|--6--5--6--5--6--------|
G|-----------------------|
D|-----------------------|
A|-----------------------|
E|-----------------------|





E|--------------5--------------5--------------5--|
B|--6--5--6--5-----6--5--6--5-----6--5--6--5-----|
G|-----------------------------------------------|
D|-----------------------------------------------|
A|-----------------------------------------------|
E|-----------------------------------------------|


Verse 2
E|--------------------------|
B|--6--8--8/10--8--6--8--6--|
G|--------------------------|
D|--------------------------|
A|--------------------------|
E|--------------------------|



E|-----8--6--6--5--3--1--3--8------|
B|--8--------------------------10--|
G|---------------------------------|
D|---------------------------------|
A|---------------------------------|
E|---------------------------------|

E|--------------------------------------------------------------8-----|
B|--10--10--8--8--8--10--8--6--5--6--8--6--6/10--10---10--8--10----8--|
G|--------------------------------------------------------------------|
D|--------------------------------------------------------------------|
A|--------------------------------------------------------------------|
E|--------------------------------------------------------------------|

E|-----8--6--5--3--1--1/3--1--1--8--6--6--5--3--1--3--8------|
B|--8----------------------------------------------------10--|
G|-----------------------------------------------------------|
D|-----------------------------------------------------------|
A|-----------------------------------------------------------|
E|-----------------------------------------------------------|

E|--------------------------------------------------------------8-----|
B|--10--10--8--8--8--10--8--6--5--6--8--6--6/10--10---10--8--10----8--|
G|--------------------------------------------------------------------|
D|--------------------------------------------------------------------|
A|--------------------------------------------------------------------|
E|--------------------------------------------------------------------|

E|--------5--5--3--1--1/8--------|
B|--1--3-----------------9\8--8--|
G|-------------------------------|
D|-------------------------------|
A|-------------------------------|
E|-------------------------------|



E|----------------------------------|
B|--6--5--3--5--6--6/8--8--6--6/10--|
G|----------------------------------|
D|----------------------------------|
A|----------------------------------|
E|----------------------------------|



E|--------------------------------------------|
B|--6--8--8/10--10--10--10--8--6--5--6--8--6--|
G|--------------------------------------------|
D|--------------------------------------------|
A|--------------------------------------------|
E|--------------------------------------------|



E|----------------------------|
B|--10--8--6--10--8--6--5--6--|
G|----------------------------|
D|----------------------------|
A|----------------------------|
E|----------------------------|

Finale x6

E|-----------------------5-----|
B|--6--5--6--5--6--5--6-----6--|
G|-----------------------------|
D|-----------------------------|
A|-----------------------------|
E|-----------------------------|



E|-----------------------8--5--|
B|--6--5--6--5--6--5--6--------|
G|-----------------------------|
D|-----------------------------|
A|-----------------------------|
E|-----------------------------|



E|--------------5--------------5--------------5-----------------8--5--|
B|--6--5--6--5-----6--5--6--5-----6--5--6--5-----6--5--6--5--6--------|
G|--------------------------------------------------------------------|
D|--------------------------------------------------------------------|
A|--------------------------------------------------------------------|
E|--------------------------------------------------------------------|
Suggest correction What's this?
You can suggest a correction to this tab. Community and Mods will review your correction and vote to approve or reject it.
comments
We did not receive enough feedback on this tab! Please rate:
print report bad tab
1 2 3 4 5
I want to post or [tab]
guest
You may want to rate the tab now too:
select rating
Please do not post tabs as comments. Select "correction" instead!