Oops, an error
Loading. Please wait.

My Love Tab

3,881 views 6 this week
no commentswrite comment
1 2 3 4 5
please rate
add to favorites
launch autoscroll
font size
0
reset
how to read this tab
guitar tuner
Tab Pro tools
  • play this tab
  • loop segment
  • change instrument
  • show fretboard
  • metronome
×
Best way to learn
"My Love"
Autoscroll
slow
fast
+/-
esc
set tempo
stop
Contributor
Difficulty
intermediate
-------------------------------------------------------------------------------
                              Lee Seung Chul - My Love

-------------------------------------------------------------------------------
Tabbed By : xiTiz

Tuning : Standard

Note: p = pull
      s = slide

Chords used: 

  Bbm   Ebm    Ab   Db9    C5    F5    F#
e|-1-----6-----4-----4-----x-----x-----2------|
b|-2-----7-----4-----4-----x-----6-----2------|
g|-3-----8-----5-----6-----5-----5-----3------|
d|-3-----8-----6-----6-----5-----3-----4------|
a|-1-----6-----6-----4-----3-----x-----4------|
e|-x-----x-----4-----x-----x-----x-----2------|


You can also use the power chords instead of the whole chords:

*i prefer the power chords when my hands start to pain from the stress*

  Bb5   Eb5   Ab5   Db5    C5    F5    F#5
e|-x-----x-----x-----x-----x-----x-----x------|
b|-x-----x-----x-----x-----x-----6-----x------|
g|-3-----8-----5-----6-----5-----5-----x------|
d|-3-----8-----6-----6-----5-----3-----4------|
a|-1-----6-----6-----4-----3-----x-----4------|
e|-x-----x-----4-----x-----x-----x-----2------|



**Here is the youtube cover i did for this song
:- www.youtube.com/watch?v=WiJqPsZnlug **


If there is any song you want the tab of then send me a message on my 
youtube channel or UG profile,i'll try my best to cover it up~!! C=

Youtube:
http://www.youtube.com/user/xitizhnn

Ultimate-Guitar:
http://profile.ultimate-guitar.com/Xitiz+Rana/

Beautiful song to learn. Enjoy ^ ^ ~!! 

-------------------------------------------------------------------------------

~~~~~~
Intro:
~~~~~~
e |----------------------------------------------------------------|
b |------1-2---1-2-----6-7---6-7-----2-4---2-4-----4-6---4-6-------|
g |----------------------------------------------------------------|
d |----3------3-------8-----8---------------------6-----6----------|
a |---1------1-------6-----6--------6-----6------4-----3-----------|
e |--------------------------------4-----4-------------------------|

~~~~~~
Verse:
~~~~~~
        Bbm     Ebm       Ab         Db9 C5 
saranghae geumareun mueosboda apeunmal 
        Bbm        Ebm       Ab         Db9 C5
sumjugyeoseo haneunmal ijen hagi himdeunmal
         Bbm               Ebm        Ab                   Db9 C5 
Oh-oh-oo haessari balkeun achimboda bamui dalbichi eoullyeoyo 
       Bbm         Ebm         Ab                               
ibyeorui geu ipmajchum jamsi jeobeodunchae idaero ireohge

~~~~~~~
Chorus:
~~~~~~~
Db9              F5                Bbm   
himkkeot anajulkke neol geurigo malhalkke
            Ab            F#        Db9  
na ireohge neoreul oechimyeonseo My love 
      F#             Ab
neon boji mothal nae majimak nunmul

Db9              F5                Bbm 
himkkeot anajulkke neol geurigo bonaelkke 
               Ab           F#         Db9     
na ttohanbeon neoreul oechimyeonseo My love
      F#             Ab   
neon deutji mothal saranghandan naemal

~~~~~~
Verse:
~~~~~~
*same as intro*
gwaenchanha geumareun ansseureoun geojismalyo 
        Bbm         Ebm     Ab           Db9 
aesseumyeonseo useodo urin geujeo nunmulman

Lead:-

e |---8-9--12p---------9-12p-8-8s9----|
b |-9----------9-9s10-----------------|
g |-----------------------------------|
d |-----------------------------------|
a |-----------------------------------|
e |-----------------------------------|
 

 Bbm               Ebm        Ab                   Db9 C5 
Oh-oh-oo haessari balkeun achimboda bamui dalbichi eoullyeoyo 
       Bbm         Ebm         Ab                               
ibyeorui geu ipmajchum jamsi jeobeodunchae idaero ireohge


~~~~~~~
Chorus: ( 2x )
~~~~~~~
Db9              F5                Bbm   
himkkeot anajulkke neol geurigo malhalkke
            Ab            F#        Db9  
na ireohge neoreul oechimyeonseo My love 
      F#             Ab
neon boji mothal nae majimak nunmul

Db9              F5                Bbm 
himkkeot anajulkke neol geurigo bonaelkke 
               Ab           F#         Db9     
na ttohanbeon neoreul oechimyeonseo My love
      F#             Ab   
neon deutji mothal saranghandan naemal
   Db5
My looooveeeeee~

-------------------------------------------------------------------------------
~End~
comments
We did not receive enough feedback on this tab! Please rate:
print report bad tab
1 2 3 4 5
I want to post or [tab]
guest
You may want to rate the tab now too:
select rating
Please do not post tabs as comments. Select "correction" instead!