Oops, an error
Loading. Please wait.

Lion And The Lamb Tab

version 1
version 1

Whole song

  • Electric guitar full song - Key of B.
712 views 21 this week
no commentswrite comment
1 2 3 4 5
2 more votes to show rating
add to favorites
launch autoscroll
font size
0
reset
how to read this tab
guitar tuner
Autoscroll
slow
fast
+/-
esc
set tempo
stop
Help us to improve Ultimate-Guitar.com Take our survey!
×
Author
Difficulty
intermediate
About this tab version
Electric guitar full song - Key of B. Was this info helpful? Yes No
Key of B

Light overdrive, dotted 1/8th delay, High Mix, Slight Reverb. 

[Intro 2x]

e|---------------------------------------------------------------------------|
B|---14-16---14-17-16------14-16p14-14--14-16p14-----14-16p14-14--16p14-14---|
G|-16------16------------16-----------16-----------16-----------16-----------|
D|---------------------16------------------------16--------------------------|
A|---------------------------------------------------------------------------|
E|---------------------------------------------------------------------------|


[Intro to 2nd Verse]

e|---------------------------------------------------------------------------|
B|---14-16----14-17-16-----14-16p14-14--14-16p14-----14-16p14-14--16p14------|
G|-16------16------------16-----------16-----------16-----------16-----------|
D|---------------------16------------------------16--------------------------|
A|---------------------------------------------------------------------------|
E|---------------------------------------------------------------------------|

[2nd Verse]

e|------------------------------------------------------------------------------|
B|------------------------------------------------------7------7------7------7--|
G|-------------------------------------------------------8------8------8------8-|
D|-9-9-9-9-9-9-9-9-9-11-9--9-9-9-11-9--9-9-9-11-9--9-9-9--9-9-9--9-9-9--9-9-9---|
A|------------------------------------------------------------------------------|
E|------------------------------------------------------------------------------|


[Chorus]

   B //////  F# //  G# ////  G#M //  F# //  E ////  F# ////
                                                                
e|-2---------9------11-------11------9------7-------9----|
B|-2---------9------11-------12------9------7-------9----|
G|-4---------11-----13-------13------11-----9-------11---|
D|-4---------11-----13-------13------11-----9-------11---|
A|-2---------9------11-------11------9------7-------9----|
E|-X---------X------X--------X-------X------X-------X----|

   B //////  F# //  G# ////  G#M //  F# //  E ////  F# //// E //// F# ////
                                                                  
e|-2---------9------11-------11------9------7-------9-------7------9------------|
B|-2---------9------11-------12------9------7-------9-------7------9------------|
G|-4---------11-----13-------13------11-----9-------11------9------11-----------|
D|-4---------11-----13-------13------11-----9-------11------9------11-----------|
A|-2---------9------11-------11------9------7-------9-------7------9------------|
E|-X---------X------X--------X-------X------X-------X-------X------X------------|


[Bridge] Repeats 14x           14th time end on;

e|----------11---------------------------------------------------------------|
B|------14----14--14-----------------------------13--------------------------|
G|-11-11--11----11-----------------------------------------------------------|
D|---------------------------------------------------------------------------|
A|---------------------------------------------------------------------------|
E|---------------------------------------------------------------------------|

e|---------------------------------------------------------------------------|
B|---14-16----14-17-16-----14-16p14-14--14-16p14-----14-16p14-14--16p14------|
G|-16------16------------16-----------16-----------16-----------16-----------|
D|---------------------16------------------------16--------------------------|
A|---------------------------------------------------------------------------|
E|---------------------------------------------------------------------------|


[Optional High Chorus]

   G#M //////  F# //  G#M //////  F# //  E ////  F# ////  
                                                                  
e|-14----------14-----14----------14-----11------13----|
B|-12----------11-----12----------11-----11------13----|
G|-11----------11-----11----------11-----9-------11----|
D|-X-----------X------X-----------X------9-------11----|
A|-X-----------X------X-----------X------X-------X-----|
E|-X-----------X------X-----------X------X-------X-----|

   G#M //////  F# //  G#M //////  F# //  E ////  F# //// E ////  F# ////  
                                                                  
e|-14----------14-----14----------14-----11------13------11------13------------|
B|-12----------11-----12----------11-----11------13------11------13---------13-|
G|-11----------11-----11----------11-----9-------11------9-------11------------|
D|-X-----------X------X-----------X------9-------11------9-------11------------|
A|-X-----------X------X-----------X------X-------X-------X-------X-------------|
E|-X-----------X------X-----------X------X-------X-------X-------X-------------|


************************************

| x   Dead note
| p   Pull-off
| ~   Vibrato

************************************
Suggest correction
Give kudos to tab author, rate the tab!
1 2 3 4 5
comments
print report bad tab
guest
You may want to rate the tab now too:
select rating
Wanna post a correction for this tab? Suggest correction