Oops, an error
Loading. Please wait.

Teuvo Maanteiden Kuningas Bass Tab

version 1
version 1

Whole song

Interactive

2,359 views 6 this week
no commentswrite comment
1 2 3 4 5
please rate
add to favorites
launch autoscroll
font size
0
reset
guitar tuner
Autoscroll
slow
fast
+/-
esc
set tempo
stop
Help us to improve Ultimate-Guitar.com Take our survey!
×
Author
Difficulty
novice
Band: Leevi and the Leavings
Song: Teuvo, maanteiden kuningas
Album: Häntä koipien välissä (1988)
Tuning: Standard


Intro/Chorus/Outro

G|--------------------------------------------------------|
D|---------5-7-9---------7-9-11-12--14--12--9--------7-7--|
A|-2--2----------7--7---------------------------7-7-------|
E|--------------------------------------------------------|

Verse

G|-----------------------------------------------------|
D|----------------------0----------------0-0-0-0-2--0--|
A|---------------0--2-4-------------0-0----------------|
E|-3-2-3-2-0-2-3-----------5---3-3---------------------|

Bridge

G|-------------------------------------------------|
D|-------------------------------------------------|
A|-5-5-5-5-5-5-5-5-----------------7-7-7-7-7-7-7-7-|
E|-----------------5-5-5-5-5-5-5-5-----------------|
                                                      x2
G|--------------------------------------------------|
D|----------------------------------5-5-5-5-5-5-5-5-|
A|--------------------------------------------------|
E|-7-7-7-7-5-5-5-5-3-3-3-3-3-3-3-3/-----------------|
Suggest correction
Give kudos to tab author, rate the tab!
1 2 3 4 5
comments
print report bad tab
guest
You may want to rate the tab now too:
select rating
Wanna post a correction for this tab? Suggest correction