Oops, an error
Loading. Please wait.

Teuvo Maanteiden Kuningas Tab

version 1
version 1

Whole song

Interactive

49,610 views 72 this week
8 commentsread comments
1 2 3 4 5
accurate
x 11
add to favorites
launch autoscroll
font size
0
reset
how to read this tab
guitar tuner
Autoscroll
slow
fast
+/-
esc
set tempo
stop
Help us to improve Ultimate-Guitar.com Take our survey!
×
Author
Difficulty
novice
Leevi And The Leavings - Teuvo Maanteiden kuningas
Tekijä: Jarno Silén
Author: Jarno Silén

[Intro]
e|-------------------------------3---2--0------------------|
B|------3--3--3--2--0--3--0--0---------------0--3--2-------|
G|---------------------------------------------------------|
D|---------------------------------------------------------| x6
A|---------------------------------------------------------|
E|---------------------------------------------------------|   

[Verse]
e|-----------------------------------------------|
B|------3-3-3-3-5-5-5-5-3-2-0---3------0-0-0-----|
G|----------------------------2-----2--------2---|
D|-----------------------------------------------|
A|-----------------------------------------------|
E|-----------------------------------------------|

e|-------------------|
B|-------------------|
G|------------2-2----|
D|------2-3-5--------|  x4
A|-------------------|
E|-------------------|   

[Chorus]
e|-------------------------------3---2--0------------------|
B|------3--3--3--2--0--3--0--0---------------0--3--2-------|
G|---------------------------------------------------------|
D|---------------------------------------------------------|  x4
A|---------------------------------------------------------|
E|---------------------------------------------------------|  

[Verse]
e|----------------------------------------------|
B|------3-3-3-3-5-5-5-5-3-2-0---3------0-0-0----|
G|----------------------------2-----2--------2--|
D|----------------------------------------------|
A|----------------------------------------------|
E|----------------------------------------------|

e|------------------|
B|------------------|
G|------------2-2---|
D|------2-3-5-------|  x2
A|------------------|
E|------------------|   

[Chorus]
e|-------------------------------3---2--0------------------|
B|------3--3--3--2--0--3--0--0---------------0--3--2-------|
G|---------------------------------------------------------|
D|---------------------------------------------------------|  x4
A|---------------------------------------------------------|
E|---------------------------------------------------------|  

  "Rallikuskiksi pääsystä..........."
e|-----------------------------------------------|
B|-----------------------------------------------|
G|-----------------------------------------------|
D|----------------------------------5-5-5-5-3-2--|
A|------5-7-8-8-8-8-7-5-3-3-5-3-2-0--------------|
E|-----------------------------------------------|

e|--------------------------|
B|--------------------------|
G|--------------------------|
D|--------2-----------------|  x2
A|------5---5-3-5-3-2-------|
E|--------------------3-3---|   

[Chorus]
e|-------------------------------3---2--0------------------|
B|------3--3--3--2--0--3--0--0---------------0--3--2-------|
G|---------------------------------------------------------|
D|---------------------------------------------------------|  x4
A|---------------------------------------------------------|
E|---------------------------------------------------------|  

[Verse]
e|---------------------------------------------|
B|------3-3-3-3-5-5-5-5-3-2-0---3------0-0-0---|
G|----------------------------2-----2--------2-|
D|---------------------------------------------|
A|---------------------------------------------|
E|---------------------------------------------|

e|------------------|
B|------------------|
G|------------2-2---|
D|------2-3-5-------|  x2
A|------------------|
E|------------------|   

[Chorus]
e|-------------------------------3---2--0------------|
B|------3--3--3--2--0--3--0--0---------------0--3--2-|
G|---------------------------------------------------|
D|---------------------------------------------------| x2
A|---------------------------------------------------|
E|---------------------------------------------------|   

e|----------------------------------|
B|------7-0-7-5----5-3-5-3--7-0---0-|
G|------------------------------2---|
D|----------------------------------|
A|----------------------------------|
E|----------------------------------|

[Chorus]
e|-------------------------------3---2--0-------------|
B|------3--3--3--2--0--3--0--0---------------0--3--2--|
G|----------------------------------------------------|
D|----------------------------------------------------| x2
A|----------------------------------------------------|
E|----------------------------------------------------|

e|-----------------------------------|
B|------7-0-7-5----5-3-5-3--7-0---0--|
G|------------------------------2----|
D|-----------------------------------|
A|-----------------------------------|
E|-----------------------------------|

[Chorus]
e|-------------------------------3---2--0----------------|
B|------3--3--3--2--0--3--0--0---------------0--3--2-----|
G|-------------------------------------------------------|
D|-------------------------------------------------------| x10
A|-------------------------------------------------------|
E|-------------------------------------------------------|
Suggest correction
comments
print report bad tab
8 comments total. Showing first comments.
+3 reply
Jorma26 41 wrote on December 1 2007, 04:28 am

Kiitos loistavasta tabista!

+4 reply
Kitarasande 156 wrote on May 16 2008, 07:04 am

hyvä

0 reply
tiirikka 10 wrote on August 4 2008, 08:47 am

ei minusta kaikki kuulosta oikeelta... kiits kuitenki. tai sitte skeba ei oo virreessä ;)

guest
You may want to rate the tab now too:
select rating
Please do not post tabs as comments. Select "correction" instead!