Oops, an error
Loading. Please wait.

4 Weeks Bass Tab

1,335 views 1 this week
no commentswrite comment
1 2 3 4 5
2 more votes to show rating
add to favorites
launch autoscroll
font size
0
reset
guitar tuner
Autoscroll
slow
fast
+/-
esc
set tempo
stop
Help us to improve Ultimate-Guitar.com Take our survey!
×
Author
Difficulty
intermediate
Left Alone
Dead American Radio
4 Weeks

Main riff:
-------------------------------------------------|
-------5-5-3-------7-7-5---------3-5-5-5-3-------|
-------------5-----------7-3-3-3-----------5-3---|
---3-3---------5-5-------------------------------|

-------------------------------------------------|
-------5-5-3-------7-7-5-------------------------|
-------------5-----------7-3-3-3-3---------------|
---3-3---------5-5-----------------5-3-3-3-3-3---|
Suggest correction
Give kudos to tab author, rate the tab!
1 2 3 4 5
comments
print report bad tab
guest
You may want to rate the tab now too:
select rating
Wanna post a correction for this tab? Suggest correction