Oops, an error
Loading. Please wait.

Bastard Son Tab

172 views 1 this week
no commentswrite comment
1 2 3 4 5
please rate
add to favorites
launch autoscroll
font size
0
reset
how to read this tab
guitar tuner
Autoscroll
slow
fast
+/-
esc
set tempo
stop
Help us to improve Ultimate-Guitar.com Take our survey!
×
Left Alone
Dead American Radio
Bastard Son


Intro:
---------------------|
---------------------|
---4-4-4-4-4-4-4-4---|
---4-4-4-4-4-4-4-4---|
---2-2-2-2-2-2-2-2---|
---------------------|


Verse:
---------------------------------------------------------------------|
---------------------------------------------------------------------|
---4-4-4-4---------4-4-4-4-7-7-7-7-4-4-4-4---------------------------|
---4-4-4-4-5-5-5-5-4-4-4-4-7-7-7-7-4-4-4-4-5-5-5-5-4-4-------4-4-4---|
---2-2-2-2-5-5-5-5-2-2-2-2-5-5-5-5-2-2-2-2-5-5-5-5-4-4-------4-4-4---| x2
-----------3-3-3-3-------------------------3-3-3-3-2-2-3-2-0-2-2-2---|


Chorus:
---------------------------------------------------------------|
---------------------------------------------------------------|
---4-4-2-2---------4-4-2-2---------4-4-2-2---------------------|
---4-4-2-2-5-5-4-4-4-4-2-2-5-5-4-4-4-4-2-2-5-5-4-4-5-------4---|
---2-2-0-0-5-5-4-4-2-2-0-0-5-5-4-4-2-2-0-0-5-5-4-4-5-------4---|
-----------3-3-2-2---------3-3-2-2---------3-3-2-2-3-------2---|
Suggest correction
Give kudos to tab author, rate the tab!
1 2 3 4 5
comments
print report bad tab
guest
You may want to rate the tab now too:
select rating
Please do not post tabs as comments. Select "correction" instead!