Oops, an error
Loading. Please wait.

By My Side Tab

version 1
version 1

Whole song

692 views 6 this week
no commentswrite comment
1 2 3 4 5
please rate
add to favorites
launch autoscroll
font size
0
reset
how to read this tab
guitar tuner
Autoscroll
slow
fast
+/-
esc
set tempo
stop
Help us to improve Ultimate-Guitar.com Take our survey!
×
Intro (listen for strumming)

e--------------------------
B--------------------------
G-------7---5--------------
D---5---7---5---5----------
A---5---5---3---5----------
E---3-----------3-----------         x2

Verse (this is tough, i use a combination of alternate picking and ska/upstroke)

e--------------------------------------------------------------
B--------------------------------------------------------------
G---------------------------77--7-7-7-7-7-7--777--------------
D---55--5-5-5-5-5-5--555---77--7-7-7-7-7-7--777--------------
A---55--5-5-5-5-5-5--555---55--5-5-5-5-5-5--555--------------
E---33--3-3-3-3-3-3--333--------------------------------------

e--------------------------------------------------------------
B--------------------------------------------------------------
G---55--5-5-5-5-5-5--555--------------------------------------
D---55--5-5-5-5-5-5--555---55-5-5-5-5-5-5--555---------------
A---33--3-3-3-3-3-3--333---55-5-5-5-5-5-5--555---------------
E---------------------------33-3-3-3-3-3-3--333----------------  x2

Chorus 

e-----------------------------------
B-----------------------------------
G-----------------------------------
D-------55-------5555555------------
A---33--33--55---5555555------------
E---11------33---33333333-----------  x4


solos are for losers.  just kidding.  i'll work on it.

enjoy.
Suggest correction
Give kudos to tab author, rate the tab!
1 2 3 4 5
comments
print report bad tab
guest
You may want to rate the tab now too:
select rating
Wanna post a correction for this tab? Suggest correction