Oops, an error
Loading. Please wait.

City To City Bass Tab

679 views 1 this week
no commentswrite comment
1 2 3 4 5
2 more votes to show rating
add to favorites
launch autoscroll
font size
0
reset
guitar tuner
Autoscroll
slow
fast
+/-
esc
set tempo
stop
Help us to improve Ultimate-Guitar.com Take our survey!
×
Left Alone
Dead American Radio
City to City


Chorus:
------------------------------353----5-53---------------------|
----------------------------23---3-------5---5-53-------------|
---3-3-330---------001123-3-------33-------------5------013---| x2
----------3-3-33011-----------------------33-------1-1-1------|


Verse/Bridge(Played under Solo):
---------------------------|
---------------------------|
---3-3-330-----------013---|  x4
----------3-3-3301-11------|
Suggest correction
Give kudos to tab author, rate the tab!
1 2 3 4 5
comments
print report bad tab
guest
You may want to rate the tab now too:
select rating
Wanna post a correction for this tab? Suggest correction