Oops, an error
Loading. Please wait.

Dead American Radio Bass Tab

120 views 1 this week
no commentswrite comment
1 2 3 4 5
please rate
add to favorites
launch autoscroll
font size
0
reset
guitar tuner
Tab Pro tools
  • play this tab
  • loop segment
  • change instrument
  • show fretboard
  • metronome
Autoscroll
slow
fast
+/-
esc
set tempo
stop
Contributor
Difficulty
The bass riff intro before the guitar solo (pay attention on the time):

---------------------------|
---------------------------|
-191919-17-----------------|      (these are 19 and 17)
-----------19-17-----------|


Intro (w/ the guitar solo):
-------------------------------------------------------------|
-------------------------------------------------------------|
-55-5555-55-555-00-0000-00-000-22-2222-22-222----------------|
----------------------------------------------33-3333-33-333-|

Verse 1 (x2):
-----------------------------|
---------------99999---------|
-555555-000000---------------|
----------------------333333-|

Chorus:
------------------------------------------------|
------------------------------------------------|
-555-555-555-000-000-000------------555-555-555-|
------------------------333-333-333-------------|

--------------------------------------------------|
--------------------------------------------------|
-7-555-555-555-000-000-000------------555-555-555-|
--------------------------333-333-333-------------|

Verse 2 (x2):
-----------------------------|
---------------999999--------|
-555555-000000---------------|
----------------------333333-|

Chorus:
------------------------------------------------|
------------------------------------------------|
-555-555-555-000-000-000------------555-555-555-|
------------------------333-333-333-------------|

--------------------------------------------------|
--------------------------------------------------|
-7-555-555-555-000-000-000------------555-555-555-|
--------------------------333-333-333-------------|

Guitar solo (same as intro):
-------------------------------------------------------------|
-------------------------------------------------------------|
-55-5555-55-555-00-0000-00-000-22-2222-22-222----------------|
----------------------------------------------33-3333-33-333-|

Chorus:
------------------------------------------------|
------------------------------------------------|
-555-555-555-000-000-000------------555-555-555-|
------------------------333-333-333-------------|

--------------------------------------------------|
--------------------------------------------------|
-7-555-555-555-000-000-000------------555-555-555-|
--------------------------333-333-333-------------|

Guitar solo (last part):
--------------------------------------------|
----77------------------7--7--7-----5--5--5-|
-55------191919//--00-----7--7--------5--5--|
--------------------------------33----------|

---------------------------------------------------------------|
----77----------------77-----------------7--7--7-------5--5--5-|
-55------191919//--55-----191919//--00-----7--7----------5--5--|
------------------------------------------------33-------------|

-------------------------------------------|
-------------------------------------------|
-55555555-0000000---------555555-5~--------|
------------------3333333------------------|

~ = vibrato
/ = slide up
comments
We did not receive enough feedback on this tab! Please rate:
print report bad tab
1 2 3 4 5
I want to post or [tab]
guest
You may want to rate the tab now too:
select rating
Please do not post tabs as comments. Select "correction" instead!