Oops, an error
Loading. Please wait.

Justino Bass Tab

480 views 1 this week
no commentswrite comment
1 2 3 4 5
2 more votes to show rating
add to favorites
launch autoscroll
font size
0
reset
guitar tuner
Autoscroll
slow
fast
+/-
esc
set tempo
stop
Help us to improve Ultimate-Guitar.com Take our survey!
×
Left Alone
Dead American Radio
Justino


Intro/Verse:
-----------------------35-----575------|
-------35----353-----5------7----75----|
-----5------5---31/3------5--------8---| x4
---3------3----------------------------|


Chorus:
---------------------------------|
---------------------------------|
---2-22-023-3-330----23-5-5550---| x4
-----------------3-33------------|
Suggest correction
Give kudos to tab author, rate the tab!
1 2 3 4 5
comments
print report bad tab
guest
You may want to rate the tab now too:
select rating
Wanna post a correction for this tab? Suggest correction