Oops, an error
Loading. Please wait.

La Pregunta Tab

517 views 1 this week
no commentswrite comment
1 2 3 4 5
please rate
add to favorites
launch autoscroll
font size
0
reset
how to read this tab
guitar tuner
Autoscroll
slow
fast
+/-
esc
set tempo
stop
Help us to improve Ultimate-Guitar.com Take our survey!
×
Left Alone
Dead American Radio
La Pregunta

Intro/Bridge:
---------------------------------|
-------x---x---x---x---x---x-----|
---6-4-x-4-x-4-x-4-x-4-x-4-x-4---|
---6-4-x-2-x-2-x-2-x-2-x-2-x-2---|
---4-2-x---x---x---x---x---x-----| x2
---------------------------------|


---------------------------------|
---------------------------------|
---7-6-x---x---x---x---x---x-----|
---7-6-x-4-x-4-x-4-x-4-x-4-x-4---|
---5-4-x-2-x-2-x-2-x-2-x-2-x-2---| x2
---------------------------------|


---------|
---------|
---6-4---|
---6-4---|
---4-2---| x1
---------|


Verse:
---x-4---------x-7---------|
---x-5---------x-7---------|
---x-4-(x16)---x-8-(x16)---|
---x-6---------x-9---------|
---------------------------| x2
---------------------------|


Pre-Chorus:
---------------------|
---------------------|
---6-6-6-6-2-2-2-2---|
---6-6-6-6-2-2-2-2---|
---4-4-4-4-0-0-0-0---| x4
---------------------|


Chorus:
-----------------------------------------|
---x-------------------------------------|
---x-4------x--------x--------x-2--------|
---x-2-(x4)-x-4------x-6------x-2--------|
------------x-2-(x4)-x-4-(x4)-x-0-(x4)---| x4
-----------------------------------------|
Suggest correction
Give kudos to tab author, rate the tab!
1 2 3 4 5
comments
print report bad tab
guest
You may want to rate the tab now too:
select rating
Please do not post tabs as comments. Select "correction" instead!