Oops, an error
Loading. Please wait.

Would You Stay Now Bass Tab

417 views 1 this week
no commentswrite comment
1 2 3 4 5
2 more votes to show rating
add to favorites
launch autoscroll
font size
0
reset
guitar tuner
Autoscroll
slow
fast
+/-
esc
set tempo
stop
Help us to improve Ultimate-Guitar.com Take our survey!
×
Author
Difficulty
novice
Would You Stay Now Tab by Left Alone
-------------------------------------

Verse
G:-------------------------------------|
D:---3-5------------4-4-5-5-6-6-7-6-5-4| 3x
A:3-3------------5-5-------------------|
E:------3-3-3-3-3----------------------|

Chorus
G:--------------------------------------|
D:-------------------4-4-5-5-6-6-7-6-5-4| A Few Times
A:3-3-3-3---------5-5-------------------|
E:-------3-3-3-3-3----------------------|

Pre-Chorus

G:--------------------------------------|
D:-------------------4-4-5-5-6-6-7-6-5-4| 3x
A:3-3-3-3---------5-5-------------------|
E:-------3-3-3-3-3----------------------|

G:--------------------------------------|
D:-----------------------7-6-5-4--------| 1x
A:3-3-3-3---------5-5-5-5---------------|
E:-------3-3-3-3-3----------------------|

Bridge
G:--------------------|
D:-------------7-6-5-4| 1x
A:3---------5---------|
E:-----3--------------|

Ending
G:---------------------|
D:---------------------| 1x
A:3---3-----5-5-5-5-5-5|
E:-----3---3-----------|
Suggest correction
Give kudos to tab author, rate the tab!
1 2 3 4 5
comments
print report bad tab
guest
You may want to rate the tab now too:
select rating
Wanna post a correction for this tab? Suggest correction