Oops, an error
Loading. Please wait.

Atrofio De Vida Tab

91 views 1 this week
no commentswrite comment
1 2 3 4 5
2 more votes to show rating
add to favorites
launch autoscroll
font size
0
reset
how to read this tab
guitar tuner
Autoscroll
slow
fast
+/-
esc
set tempo
stop
Help us to improve Ultimate-Guitar.com Take our survey!
×
----------------------------------------------------------------------------
                       Left Side - Atrofio de Vida
----------------------------------------------------------------------------


Ritmo 1
e|----—------------------------------------------------|
B|-----------------------------------------------------|
G|-------5--7------------------------------------------|
D|-5--7--5--7------------------------------------------|
A|-5--7--3--5------------------------------------------|
E|-3--5--—---------------------------------------------|

Ritmo 1
Vive em mim uma sede de morrer
Propagandas para vidas melhores
Folhetos voam na rua…
Escritos com mentiras
Pois a verdade e nua e crua 

A pobreza aumenta…
A pobreza aumenta…
Vamos dar ao mundo o que tu pensas

Cai sobre a pedra da vida
Pensa no mundo como quem nos faz uma ferida   Refrão
Muda esta forma de estar
Sente que tudo isto pode mudar!

Atentados!
Povoam as notícias como grandes embaraços 
Dias cinzentos…
Deviam acabar como grandes julgamentos

Vai tudo acabar…Com estas vidas vamos delirar
Vai tudo acabar…Está na hora de revolucionar
Vai tudo acabar…
Só temos de acreditar…

Refrão  


Solo
e|--------—---------------------------------------------|
B|------------------------------------------------------|
G|------------------------------------------------------|  (2x)
D|------------------------------------------------------|
A|--9b-7p9-7p9------------------------------------------|
E|--------------7b-5p7-5p7—9b-7p9-7p9--10-8-10-11-12----|

e|--------—---------------------------------------------|
B|------------------------------------------------------|
G|------------------------------------------------------|
D|-----------------------------------------17b-15-------|
A|-----------------------------------17-15--------------|
E|-----(12-14-13-12)---17b-15-17b-15--------------------|
               \   Fast (4x) /


Ritmo 1
Dias Esperados…
Para mudar a vida dos mais necessitados
Atrofio de Vida…
Vai ter mesmo de acabar!        

Refrão   
Suggest correction
Give kudos to tab author, rate the tab!
1 2 3 4 5
comments
print report bad tab
guest
You may want to rate the tab now too:
select rating
Wanna post a correction for this tab? Suggest correction