Oops, an error
Loading. Please wait.

Rapariga Rebelde Tab

220 views 1 this week
no commentswrite comment
1 2 3 4 5
please rate
add to favorites
launch autoscroll
font size
0
reset
how to read this tab
guitar tuner
Autoscroll
slow
fast
+/-
esc
set tempo
stop
Help us to improve Ultimate-Guitar.com Take our survey!
×
Author
Difficulty
intermediate
----------------------------------------------------------------------------
                       Left Side - Rapariga rebelde
----------------------------------------------------------------------------

http://sites.google.com/site/leftside2/pagina-inicial

Introx2

Riff 1 (2x)
e|----------------------------------------------------------------------|
B|----------------------------------------------------------------------|
G|----------------------------------------------------------------------|
D|-------2-----2---2-----2-----2---2-----5-----5---5--------------------|
A|---0-0---0-0---0---3-3---3-3---3---5-5---5-5---5---3-3--2-2-----------|
E|----------------------------------------------------------------------|

Bass
e|-------------------------------------------------------------------------|
B|-------------------------------------------------------------------------|
G|-0-0-0-0-0-0-0-0--3-3-3-3-3-3-3-3--5-5-5-5-5-5-5-5--3-3-3-3--2-2-2-2-----|
D|-------------------------------------------------------------------------|

Ritmo
e|-1—1-3--11--11---------------------------------------|
B|-1-1-3--11--11---------------------------------------|
G|-2-1-3--11--11---------------------------------------|
D|-2-2-5--33--22---------------------------------------|
A|-1-2-5--33--22---------------------------------------|
E|-1-1-3--11--11---------------------------------------|


Letra:
Intro2x
Bass2x (com intro na 2º vez)

Ela é uma Rebelde
Usa a vida como uma arma
Parte dela não se esconde
Age sempre com muita calma

Ritmo & Riff 1 (2x)

Sabe bem o que fazer
Anda sempre com atenção
A rebeldia é uma forma
De fazer revolução
Re-vo-lu-ção

e|-11111--11111--33333------11--11---------------------------------------|
B|-11111--11111--33333------11--11---------------------------------------|
G|-22222--11111--33333------11--11---------------------------------------|2x
D|-22222--22222--55555------33--22---------------------------------------|
A|-11111--22222--55555------33--22---------------------------------------|
E|-11111--11111--33333------11--11---------------------------------------|
      Hey   Hey   Hey




Refrão
A rapariga vai lutar
Só temos de acreditar
Não estou a entender
Será que vai acontecer

Intro2x
Bass2x (sozinho)

Ela é sempre a verdade
Nunca age por vaidade
Quer ser a Voz do mundo
Ir ate á luz do fundo!

Solo+ Ritmo
e|-------------------------------------------------------------------------|
B|-------------------------------------------------------------------------|
G|-------------------------------------------------------------------------|
D|-------------------------------------------------------------------------|
A|-------------------------------------------------------------------------|
E|-9b-7p9p7-9b-7p9p7-9b-7p9p7--12b---10-12-11-(10-11-12-11)----------------|
                                               \ Fast(4x)/

e|-------------------------------------------------------------------------|
B|-------------------------------------------------------------------------|
G|-------------------------------------------------------------------------|
D|-------------------------------------------------------------------------|
A|-------------------------------------------------------------------------|
E|--15b-15b-15b15b-15b-12-17b---(15-16-17-16)--19b--19/1--1/12-------------|
                                 \ Fast(4x)/

Ritmo1 (4x)

Sabe bem o que fazer
Anda sempre com atenção
A rebeldia é uma forma
De fazer revolução
Re-vo-lu-ção

e|-11111--11111--33333------11--11---------------------------------------|
B|-11111--11111--33333------11--11---------------------------------------|
G|-22222--11111--33333------11--11---------------------------------------|2x
D|-22222--22222--55555------33--22---------------------------------------|
A|-11111--22222--55555------33--22---------------------------------------|
E|-11111--11111--33333------11--11---------------------------------------|
      Hey   Hey   Hey

Refrão
Intro+ Bass
Intro Final
Suggest correction
Give kudos to tab author, rate the tab!
1 2 3 4 5
comments
print report bad tab
guest
You may want to rate the tab now too:
select rating
Wanna post a correction for this tab? Suggest correction