Oops, an error
Loading. Please wait.

Shut Up Mother Fucker Tab

339 views 1 this week
no commentswrite comment
1 2 3 4 5
3 more votes to show rating
add to favorites
launch autoscroll
font size
0
reset
how to read this tab
guitar tuner
Autoscroll
slow
fast
+/-
esc
set tempo
stop
Help us to improve Ultimate-Guitar.com Take our survey!
×
----------------------------------------------------------------------------
                       Left Side - Vida é Injusta
----------------------------------------------------------------------------


(Ritmo 1)
e|----—-------------------------------------------------|
B|------------------------------------------------------|
G|------4--7--------------------------------------------|
D|---4--4--7--7-----------------------------------------|
A|---4--2--5--7-----------------------------------------|
E|---2----—---5-----------------------------------------|

(Ritmo 2)
e|--3-—------------------------------------------------|
B|--3--------------------------------------------------|
G|--4--------------------------------------------------|
D|--5--4-----------------------------------------------|
A|--5--4-----------------------------------------------|
E|--3--2-—---------------------------------------------|


(Ritmo 1)
Entra, sai
Faz e aconteçe 
Tudo é a tua vida
Não sei se a mereces
Desde o sol até à lua
Da terra até ao mar
A vida é injusta
Só tens de a mudar

(Refrão)(Ritmo 2)
Só tens de a mudar
Só tens de lutar
Esquece esse canto
Sai para outro lugar

(Ritmo 1)
Ama, grita
Tens esse sentimento
Aproveita agora
Não percas o momento
Todo o tempo que tu gastas
A vida que tu levas
Não te percas agora
Faz isso sem demora

(Refrão)
Solo
1º Verso
(Refrão)



(Solo)(Ritmo 1)
e|----—---------12-15-12-----------------12-15-12----12-15-15--|
B|--12-12-15-15----------14-14--12-12-15----------14-----------|
G|-------------------------------------------------------------| 2x
D|-------------------------------------------------------------|
A|-------------------------------------------------------------|
E|-------—-----------------------------------------------------|







(Ritmo 2)
e|----—--12-15-12---------------------------------------------------|
B|-12-15----------15-12---------------------------------------------|
G|----------------------15-14-12------------------------------------|
D|-------------------------------14-12------------------------------|
A|-------------------------------------14-13-12---------------------|
E|-------—--------------------------------------15-12-9-7-5-3-0-----|


e|----—--------------------------------------------------12-15-12----12-15-15--|
B|-------------------------------12-12-15----------12-15----------14-----------|
G|----------------------12-14-15----------14-12-15-----------------------------|
D|----------------12-14--------------------------------------------------------|
A|-------12-13-14--------------------------------------------------------------|
E|-12-15-—---------------------------------------------------------------------|



(Ritmo 1)
e|----—---------12-15-12-----------------12-15-12----12-15-15--|
B|--12-12-15-15----------14-14--12-12-15----------14-----------|
G|-------------------------------------------------------------| 2x
D|-------------------------------------------------------------|
A|-------------------------------------------------------------|
E|-------—-----------------------------------------------------|
Suggest correction
Give kudos to tab author, rate the tab!
1 2 3 4 5
comments
print report bad tab
guest
You may want to rate the tab now too:
select rating
Wanna post a correction for this tab? Suggest correction