Oops, an error
Loading. Please wait.

Slow Fire Chords

162 views 3 this week
no commentswrite comment
1 2 3 4 5
please rate
add to favorites
launch autoscroll
font size
0
reset
transpose
0
reset
display chords
guitar tuner
Autoscroll
slow
fast
+/-
esc
set tempo
stop
Help us to improve Ultimate-Guitar.com Take our survey!
×
Author
-------------------------------------------------------------------------------
                             SLOW FIRE - Leftmore
-------------------------------------------------------------------------------
Tabbed by: pwdftw

Tuning: Standard

Leftmore writes such great music and is such a great guy. leftmore.bandcamp.com

Notes: I haven't figured out the electric backing in the strumming part yet. But 
you can definitely play it without that part. Also, I think he plays the F with 
the bar chord shape: [xx3211] and the G with the same shape: [xx5433] 

Main Riff: This is most of the song (Palm-muted)
e|----------------|----------------|----------------|----------------|
B|----------------|----------------|----------------|----------------|
G|----------------|----------------|----------------|----------------|
D|3-3-3-3-3-3-3-3-|5-5-5-5-5-5-5-0-|----------------|----------------|
A|----------------|----------------|2-2-2-2-2-2-2-2-|3-3-3-3-0-0-0-0-|
E|----------------|----------------|----------------|----------------|

The repetition starting at 1:20 is slightly different:
e|----------------|----------------|----------------|----------------|
B|----------------|----------------|----------------|----------------|
G|----------------|----------------|----------------|----------------|
D|3-3-3-3-3-3-3-3-|5-5-5-5-5-5-5-5-|----------------|----------------|
A|----------------|----------------|3-3-3-3-3-3-3-3-|3-3-3-3-0-0-0-0-|
E|----------------|----------------|----------------|----------------|

Then, at 1:28 when he sings "I wanna be that light switch...", it changes up a bit:

e|----------------|----------------|----------------|----------------|
B|----------------|----------------|----------------|----------------|
G|2-2-2-2-2-2-2-2-|4-4-4-4-4-4-4-4-|----------------|----------------|
D|3-3-3-3-3-3-3-3-|5-5-5-5-5-5-5-5-|2-2-2-2-2-2-2-2-|2-2-2-2-2-2-2-2-|
A|----------------|----------------|2-2-2-2-2-2-2-2-|3-3-3-3-0-0-0-0-|
E|----------------|----------------|----------------|----------------|

Then at 2:00, the strumming part starts on this line and continues from there:

                                              C
So, when shit gets heavy, we already made our scene. 
           F               G
I wanna be with you in the mornings 
             Em                          Am
kissing your eyelids and thinking of breakfast. 
                 F              G
I want you there catching me so selfish 
              Em                    Am
for all of my staring, well, I can't help it. 
                     F                   G 
I've written lots of lines, not many for you yet. 
                  Em                        Am
Just give me some time and I'll give you my best. 
              F                  G
I want you to go wherever you'll go, 
                 Em                     Am
just don't be an island, let me be your coast.
                    F                      G 
Oh, I could be your ocean, just let me get close! 
                   Em                     Am
You could sail the seas and I'd keep you afloat. 
           F                    G
I wanna be near you tasting the salt, 
              Em                       Am
uncorking the bottles from letters you wrote. 
                F                      G
Just let me get close. Just let me get close! 
                C
I wanna be your coast.
                F                      G 
Just let me get close. Just let me get close! 
                C
I wanna be your coast. 

You play a measure of C and then go straight into the main riff again. 
Have fun :) And make sure to support Leftmore.
Suggest correction
Give kudos to tab author, rate the tab!
1 2 3 4 5
comments
print report bad tab
guest
You may want to rate the tab now too:
select rating
Wanna post a correction for this tab? Suggest correction