Oops, an error
Loading. Please wait.

Gang Control Tab

version 2
version 2

Whole song

Interactive

4,484 views 3 this week
no commentswrite comment
1 2 3 4 5
accurate
x 3
add to favorites
launch autoscroll
font size
0
reset
how to read this tab
guitar tuner
Tab Pro tools
  • play this tab
  • loop segment
  • change instrument
  • show fretboard
  • metronome
×
Best way to learn
"Gang Control"
Autoscroll
slow
fast
+/-
esc
set tempo
stop
Contributor
Tabbers playing skills
beginner ++
-- Gang Control --


e-------------------------------------------------|
B-------------------------------------------------|
G-------------------------------------------------|
D-------7-6-4----------------------7-6-4----------|
A-4-7-4-------7-6-4-6--------4-7-4-------7-6-4-6--|
E---------------------4---------------------------|


intro 2:

--4-4x4x4x4x4x-4-5---7-7x7x7x7x7x-5-7-------------|
--5-5x5x5x6x6x-4-5---9-9x9x9x9x9x-5-7-------------|
--6-6x6x6x6x6x-5-6---9-9x9x9x9x9x-6-8-------------|
--6-6x6x6x6x6x-6-7---9-9x9x9x9x9x-7-9-------------|
--4-4x4x6x6x6x-6-7---7-7x7x7x7x7x-7-9-------------|
----------------4-5---7-------------5-7-----------|


verse 1:
same chords as intro 2 with slightly different rythm


verse 2: (when popeye sings)

--4x4x-4x4x-5x5x-7x7x--7x7x-7x7x--9x-9x-12x12x---|
--5x5x-4x4x-5x5x-7x7x--9x9x-7x7x-11x11x-14x14x---|
--6x6x-5x5x-6x6x-8x8x--9x9x-8x8x-11x11x-14x14x---|
--6x6x-6x6x-7x7x-9x9x--9x9x-9x9x-11x11x-14x14x---|
--4x4x-6x6x-7x7x-9x9x--7x7x-9x9x--9x-9x-12x12x---|
-------4x4x-5x5x-7x7x-------7x7x-----------------|


pre-chorus:  *play about 12 times
-------------------------------------------------|
-------------------------------------------------|
--999-999-777-----------13*-16*16~--13-14-13-----|
--999-999-777-777-(x2)--13--16-16~--13-14-13-----|
--777-666-555-777-------11--14-14~--11-12-11-----|
---------------555-------------------------------|
the 2nd guitar might continue playing the first part,
or maybe its just the bass, i dont know


chorus: "fuck the police..."
----------------------------------|
----------------------------------|
-----(9)-6-6--4--(4)-(6)----------|
-2-2/(9)-6-6--4--(4)-(6)----------|
-2-2/(7)-4-4--2--(2)-(4)----------|
-0-0/-----------------------------|
play variations of this, just mess around with it,
it sounds alright


repeat intro 2, verse 1, verse 2, pre-chorus, and chorus

bridge:

play intro 2, then:

--4x4x-4x4x-5x5x-7x7x--7x7x-7x7x--9x-9x-12x12x-----|
--5x5x-4x4x-5x5x-7x7x--9x9x-7x7x-11x11x-14x14x-----|
--6x6x-5x5x-6x6x-8x8x--9x9x-8x8x-11x11x-14x14x-----|
--6x6x-6x6x-7x7x-9x9x--9x9x-9x9x-11x11x-14x14x-----|
--4x4x-6x6x-7x7x-9x9x--7x7x-9x9x--9x-9x-12x12x-----|
-------4x4x-5x5x-7x7x--------7x7x------------------|

---------------------------------------------|
---------------------------------------------|
-6--------9-9~---66----------99----1111-1414-|
-6-6-7-9-9-9~---66-66-77-99-99-99-1111-1414--|
-4-6-7-9-7-7~---44-66-77-99-77-99--9-9-1212--|
---4-5-7------------44-55-77----77-----------|

-----------------------------------------|
-----------------------------------------|
-66----------9999-11111111-14141414-14/--|
-66-66-77-99-9999-11111111-14141414-14/--|
-44-66-77-99-7777--9-9-9-9-12121212-12/--|
----44-55-77-----------------------------|

repeat chorus

outro: *play about 8 times   #play 2 or 3 itmes
-------------------------------------------------------------|
-------------------------------------------------------------|
-13*-11#-8#--9*-18#-16#-------13*-11#-8#--9*-16#-14#---------|
--x----x---x----x---x---x----------x---x---x---x---x----x----|
-11---9---6----7--16--14--(x2)---11---9---6---7--14--12------|
-------------------------------------------------------------|

-------------------------------------|
-------------------------------------|
-13*-11#-8#--9#-18#-16#-13~--13------|
--x---x---x---x----x---x----x----x---|
-11---9---6---7---16--14--11~--11----|
comments
We did not receive enough feedback on this tab! Please rate:
print report bad tab
1 2 3 4 5
I want to post or [tab]
guest
You may want to rate the tab now too:
select rating
Please do not post tabs as comments. Select "correction" instead!