Oops, an error
Loading. Please wait.

Gay Rude Boys Unite Bass Tab

version 1
version 1

Whole song

Interactive

3,949 views 3 this week
2 commentsread comments
1 2 3 4 5
x 3
add to favorites
launch autoscroll
font size
0
reset
guitar tuner
Autoscroll
slow
fast
+/-
esc
set tempo
stop
Help us to improve Ultimate-Guitar.com Take our survey!
×
Author
Difficulty
novice
GAY RUDE BOYS UNITE
By: Leftover Crack

2nd tab. Again, please rate.


INTRO x4			    4th TIME
G:--------------------------] G:-----------------]
D:--------------------------] D:-----------------]
A:----2244-0--0442244-------] A:----2244--0044224]
E:--00----4-----------------] E:--00----44-------]

BEFORE CHORUS x4
G:------------------------------]
D:------------------------------]
A:----2-4--0--4-2-4-------------]
E:--0-----4---------------------]

CHORUS x4
G:------------------------------------]
D:------------------------------------]
A:--444444447777777777777777----9999--]
E:--------------------------7777------]

AFTER CHORUS x3			 AFTER 3rd TIME
G:------------------------------] G:--------------------]
D:------------------------------] D:--------------------]
A:--44-444-400-000-0------------] A:--0000000022222222--]
E:------------------------------] E:--------------------]


BEFORE CHORUS x8
G:------------------------------]
D:------------------------------]
A:----2-4--0--4-2-4-------------]
E:--0-----4---------------------]


CHORUS x4
G:------------------------------------]
D:------------------------------------]
A:--444444447777777777777777----9999--]
E:--------------------------7777------]


AFTER CHORUS x3			 AFTER 3rd TIME
G:------------------------------] G:--------------------]
D:------------------------------] D:--------------------]
A:--44-444-400-000-0------------] A:--0000000022222222--]
E:------------------------------] E:--------------------]


				       
WEIRD MIDDLE PART		   FAST TRIPLETS 
G:----------------------------|222-----------] <---this part is hard to tell 
D:----------------------------|---444222000--]     kuz its so fast
A:-----7\----7\------7\-------|--------------]
E:-0-----0-----0-0-----0-0-0-0|--------------]


END  x8            			AFTER 8th TIME
G:------------------------------] G:----]
D:------------------------------] D:----]
A:----2-4--0--4-2-4-------------] A:----]
E:--0-----4---------------------] E:-0--]

INTRO x4
BEFORE CHORUS x4
CHORUS x4
AFTER CHORUS x3
BEFORE CHORUS x8
CHORUS x4
AFTER CHORUS x3
WEIRD MIDDLE PART
END x8
Suggest correction
Give kudos to tab author, rate the tab!
1 2 3 4 5
comments
print report bad tab
2 comments total.
0 reply
Mr_Jubby_Jubs 40 Jun 26, 2007 04:18 PM

Not sure but I think in the post-chorus it goes:


A|44-47646-0000--|

0 reply
bassbomb1193 320 Jan 12, 2014 07:28 PM

come on now
INTRO
E:--00779945-5997799--------]

guest
You may want to rate the tab now too:
select rating
Wanna post a correction for this tab? Suggest correction