Oops, an error
Loading. Please wait.

Proven Tab

2,649 views 1 this week
1 commentread comment
1 2 3 4 5
please rate
add to favorites
launch autoscroll
font size
0
reset
how to read this tab
guitar tuner
Autoscroll
slow
fast
+/-
esc
set tempo
stop
Help us to improve Ultimate-Guitar.com Take our survey!
×
Author
Difficulty
Tuning
novice
A E A D F# B
"Proven" by Legend

Transcribed by Eric Simental
[eric.simental@yahoo.com]

Please Do Not Copy without Permission.
I posted a video on youtube awhile when this song first came out, i'll put
 the link at the end so you guys can see how it's generally played.
I believe these tabs are pretty accurate,
and i'm going to try and post a new video soon along with some tabs/videos of the entire 
Pale Horse record.
Also! It's pretty hard to tab out grooves, so orry if they're not spot on! Enjoy:)

Tuning: Drop A

h       = hammer on
p       = pull off
/ \     = slides
*       = harmonic
^       = bend
s       = speed pick
v       = vibr.
|       = break; start/end bar
~       = let ring

Intro x3
B |------------------------------------------0------------------|
F#|------------------------------------------1------------------|
D |-------------------------------------------------------------|
A |-------------------------------- 2---------------------------|
E |-------------------------5v------2---------------------------|
A |--0-1-2-xx-0-1-2-0-1-3-0----1-2-----2-1-0---0-0-0-00000000---|


Bridge(?)
B |---------------------------------------|
F#|---------------------------------------|
D |---------------------------------------|
A |------------------------------2-1------|
E |--1-0-0-1-0-0-5-4-0-0h1-0-0h1-2-1-2-0~-|
A |--1-0-0-1-0-0-5-4-0-0h1-0-0h1-----2-0~-|

Verse(?)
B |-----------------------------------------------------------|
F#|-----------------------------------------------------------|
D |-----------------------------------------------------------|
A |-----------------------------------------------------------|
E |--5-4-0-1-2-1-0-0h1------6-5---0h1-0-0-0h1-2-1-----------1-|
A |--5-4-0-1-2-1-0-0h1--1/5-----0-0h1-0-0-0h1-2-1-00-0-0-00h1-|

B |-----------------------------------------------------------|
F#|-----------------------------------------------------------|
D |-----------------------------------------------------------|
A |-----------------------------------------------------------|
E |-------------------1-----------1-----5-4-----1-------1-2-1-|
A |--00-0-0-0-0-0-000-1-00-0-0-00-1-000-5-4-0-0-1-0-0-0-1-2-1-|

B |----------------------------------------------------------|
F#|----------------------------------------------------------|
D |----------------------------------------------------------|
A |----------------------------------------------------------|
E |------------1-----------------1-----------1-----5-4-----1-|
A |--00-0-0-00-1-000-0-0-0-0-000-1-00-0-0-00-1-000-5-4-0-0-1-|

B |------------|
F#|------------|
D |------------|
A |------------|
E |------1-2-1-|
A |--000-1-2-1-|

from this piont follow the same groove on ONLY the top string until the next section, do 
not use the bar power chords

Chorusy Part

B |----------------------------------------------------------------------|
F#|----------------------------------------------------------------------|
D |----------------------------------------------------------------------|
A |----------------------------------------------------------------------|
E |----------------------------------1111--------------------------------|
A |--000-00h1-0-4444555-1-000-00h1-0-----222--1-000-00h1-0-4444555-1-000-|

B |------------------|
F#|------------------|
D |------------------|
A |------------------|
E |---------1111-----|
A |--00h1-0------2-2b|

Breakdown

B |---------------------------------------------------------------------|
F#|---------------------------------------------------------------------|
D |---------------------------------------------------------------------|
A |---------------------------------------------------------------------|
E |--0000-0-0-0-0-0-0-0000-000-0000000-0-0-0-0-0-0-0000-000-0000000-0-0-|
A |--1111-1-1-1-1-1-1-1111-111-1111111-1-1-1-1-1-1-1111-111-1111111-1-1-|

B |--------------------------------------------------------|
F#|--------------------------------------------------------|
D |--------------------------------------------------------|
A |--------------------------------------------------------|
E |--------0-0-0000-000-000-0000-0-0----0-0-0000-000-000-0~|
A |--bluah-1-1-1111-111-111-1111-1-1-1b-1-1-1111-111-111-0~|

Repeat the "verse groove" until the following section

Chorus Part Extended

B |------------------------------------------------------------------------|
F#|------------------------------------------------------------------------|
D |------------------------------------------------------------------------|
A |------------------------------------------------------------------------|
E |-----------------------------------1111---------------------------------|
A |--1-000-00h1-0-4444555-1-000-00h1-0-----222--1-000-00h1-0-4444555-1-000-|

B |-------------------------------------------0----------------|
F#|-------------------------------------------1----------------|
D |------------------------------------------------------------|
A |------------------------------------------------------------|
E |---------1111-----555444111555444111222222---0-0-0-000-0-0--|
A |--00h1-0------222-555444111555444111222222---1-1-1-111-1-1--|

B |----------------------------------------------------------------|
F#|----------------------------------------------------------------|
D |----------------------------7-----------------------------------|
A |-----------------------------6--5-0-65--------------------------|
E |--555444111888777444555555-------------555444111555444111222222-|
A |--555444111888777444555555-0---0-0-----555444111555444111222222-|

B |--0----------------------------------------------------|
F#|--1----------------------------------------------------|
D |--------------------------------------------5----------|
A |---------------------------------------------5------85-|
E |----0-0-0-000-0-0-555444111888777444555555-------------|
A |----1-1-1-111-1-1-555444111888777444555555-0---0-45----|

Breakdown 2

B |--------------------------------------------------------|
F#|--------------------------------------------------------|
D |---------------------------------------------------2----|
A |---------------------------------------------------2----|
E |---------------------000000----------------5-4-0-1---2--|
A |--1b1b1b1b1b1b1b1b1b-111111-1b1b1b1b1b1b---5-4-0-1---2--|
    |----right ear----|       |--Left ear------------------|

B |-------------------------------------------------------|
F#|-------------------------------------------------------|
D |---------------------------------------------------2---|
A |---------------------------------------------------2---|
E |---------------------000000----------------5-4-0-1---2-|
A |--1b1b1b1b1b1b1b1b1b-111111-1b1b1b1b1b1b---5-4-0-1---2-|

B |-------------------------------------------------------|
F#|-------------------------------------------------------|
D |---------------------------------------------------2---|
A |---------------------------------------------------2---|
E |---------------------000000----------------5-4-0-1---2-|
A |--1b1b1b1b1b1b1b1b1b-111111-1b1b1b1b1b1b---5-4-0-1---2-|


B |------------------------------------------------------------|
F#|------------------------------------------------------------|
D |------------------------------------------------------------|
A |------------------------------------------------------------|
E |--0000-0-0-0-0-0-0000-000-0-00-0000-0-0-0-0-0-0000-000-0-00-|
A |--1111-1-1-1-1-1-1111-111-1-11-1111-1-1-1-1-1-1111-111-1-11-|

B |----------------------------------------------------------|
F#|----------------------------------------------------------|
D |------------------------------------------------2---------|
A |------------------------------------------------2---------|
E |---------0-0-00-0-000-00-----0~-00-0-000-00-1-2---2-1-5\--|
A |--0000-0-1-1-11-1-111-11-000-0~-11-1-111-11-1-2---2-1-5\--|
           |---Right ear-------------------------------------|

B |-------------------------------------------------|
F#|-------------------------------------------------|
D |----------------------------------------2--------|
A |----------------------------------------2--------|
E |--00-0-000-00-000-0-000-00-0-000-00-1-2---2-1-5\-|
A |--11-1-111-11-111-1-111-11-1-111-11-1-2---2-1-5\-|

B |-----------------------------------------------------|
F#|-----------------------------------------------------|
D |----------------------------------------2------------|
A |----------------------------------------2------------|
E |--00-0-000-00-000-0-000-00-0-000-00-1-2---2-1-5\-0-0-|
A |--11-1-111-11-111-1-111-11-1-111-11-1-2---2-1-5\-1-1-|

http://www.youtube.com/watch?v=xLm0sfIzBdI
*please note the video is a couple of months old and I have thicker strings and a better 
idea of how the song is played, the video is pretty much for reference.
Suggest correction
Give kudos to tab author, rate the tab!
1 2 3 4 5
comments
print report bad tab
1 comment total.
0 reply
zach895 10 wrote on August 3 2012, 01:54 pm

doesn't sound right...

guest
You may want to rate the tab now too:
select rating
Wanna post a correction for this tab? Suggest correction