Oops, an error
Loading. Please wait.

Now We Are Stars bass

145 views 1 this week
no commentswrite comment
1 2 3 4 5
2 more votes to show rating
add to favorites
×
Save as Personal and add changes to this tab that will be seen only by you. Learn more ›
×
You can save this tab as Personal to edit and correct it or add notes. All changes will be seen only by you. Learn more »
launch autoscroll
font size
0
reset
guitar tuner
edit
Autoscroll
slow
fast
+/-
esc
set tempo
stop
Author
This is my attempt at the chorus bassline for Legion of Many's Now we are Stars as
seen on 'Must Be The music.

Here's me playing it: http://www.youtube.com/watch?v=G_ciYE3kOWQ

I enjoyed it so I decided to tab it.

I may post the full tab at a later date.


All rights to Legion of Many.

The Website:
http://legionofmany.com/

Here's a link to the song:

http://www.youtube.com/watch?v=VhOFS-dm2N4

G|--------------------------------------------------------------|
D|--------------------------------------------------------------|
A|---3---3--2--7--------8--8-------7---3---3--7--7--7--5--3--8--|
E|---------------5----5-------7---7--7--------------------------|

Or if you're more experienced of adventurous...


G|--17---16--16--21--------22-22---------21---17--17--21--21--21--19--17--22-|
D|------------------19---19-------21---21---21-------------------------------|
A|---------------------------------------------------------------------------|
E|---------------------------------------------------------------------------|
Suggest correction
Creating personal tab
Creating personal tab
You can edit any tab online and save it as your Personal.

You can edit, replace or remove any tab part or add personal notes – all changes will be seen only by you.

Personal tabs can be accessed anytime from any device, even offline.
Learn more »
Give kudos to tab author, rate the tab!
1 2 3 4 5
comments
print report bad tab
guest
You may want to rate the tab now too:
select rating
Wanna post a correction for this tab? Suggest correction