Oops, an error
Loading. Please wait.

Michigan intro tab

163 views 12 this week
no commentswrite comment
1 2 3 4 5
3 more votes to show rating
add to favorites
×
Save as Personal and add changes to this tab that will be seen only by you. Learn more ›
×
You can save this tab as Personal to edit and correct it or add notes. All changes will be seen only by you. Learn more »
launch autoscroll
font size
0
reset
how to read this tab
guitar tuner
edit
Autoscroll
slow
fast
+/-
esc
set tempo
stop
About this tab version
This song seems to be in an altered tuning (DADGAE) with a capo on the first fret. Leif plays the same core melody throughout the song, but changes it with little timing changes or hammer ons. Be sure to play open strings while playing the melody bass notes, as Leif does. I added random open strings to the tabs to emulate the strumming pattern:. Was this info helpful? Yes No
[Intro]
(Use this as a basic pattern for the intro, and add little variations (hammer ons and pull-offs)where needed.)
e|---|--------0-0----------------|-----0--0--------------------|
A|---|--------0-0--0---0--0----0-|-----0--0-------0------------|
G|---|--------0-0--0---0--0--0-0-|--0--0--0-------0------------|
D|---|-4---4-------4------2--0-0-|--0-------------0------------|
A|(0)|-0-------------------------|--2--------0h2------0h2p0----|
D|---|-0-------------------------|-----------------------------|

(Use this as a basic pattern for the verses:)
e|-------0-0-----------------|----0--0--------0-0-----------0-|
A|-------0-0--0---0--0----0--|----0--0--0--0--0-0--0--0--0--0-|
G|-------0-0--0---0--0--0-0--|-0--0--0--0--0--0-0--0--0--0--0-|
D|-4--4-------4------2--0-0--|-0-----0--0--0----0--0--0--0----|
A|-0-------------------------|-2-----------2-------2----------|
D|-0-------------------------|--------------------------------|

(Sometimes he plays a variation of this, the notes in parentheses being the notes the bass seems to play:)
e|-------0-0-----------------|----0--0--------0-0-----------0-|
A|-------0-0--0---0--0----0--|----0--0--0--0--0-0--0--0--0--0-|
G|-------0-0--0---0--0--0-0--|-0--0--0--0--0--0-0--0--0--0--0-|
D|-4--4--4-4--4------2--0-0--|-2-----0--0--2----0--2--0--0----|
A|-0-------------------------|-2-----------2-------2----------|
D|(4)(4)-----(4)----(2)------|--------------------------------|


************************************

| (n)  Ghost note
| h    Hammer-on
| p    Pull-off

************************************
Suggest correction
Creating personal tab
Creating personal tab
You can edit any tab online and save it as your Personal.

You can edit, replace or remove any tab part or add personal notes – all changes will be seen only by you.

Personal tabs can be accessed anytime from any device, even offline.
Learn more »
Give kudos to tab author, rate the tab!
1 2 3 4 5
comments
print report bad tab
guest
You may want to rate the tab now too:
select rating
Wanna post a correction for this tab? Suggest correction