Oops, an error
Loading. Please wait.

Casting Call bass

by Lemolo
22 views 1 this week
no commentswrite comment
1 2 3 4 5
3 more votes to show rating
add to favorites
×
Save as Personal and add changes to this tab that will be seen only by you. Learn more ›
×
You can save this tab as Personal to edit and correct it or add notes. All changes will be seen only by you. Learn more »
launch autoscroll
font size
0
reset
guitar tuner
edit
Autoscroll
slow
fast
+/-
esc
set tempo
stop
Author
-------------------------------------------------------------------------
                          Lemolo - Casting Call
-------------------------------------------------------------------------
Tabbed by: boblentil

Tuning: Standard


Verse 1 (0:00 to 0:39)

   1-+-2-+-3-+-4-+-1-+-2-+-3-+-4-+-1-+-2-+-3-+-4-+-1-+-2-+-3-+-4-+-  \
G|-----------------------------------------------------------------| |
D|-----------------------------------------------------------------| |
A|-----------------------------------------------------------------| |
E|-----------------------------------------------------------------| |
B|-3---------------3---3-----------3-------------------------------| |
                                                                     | 2x
   1-+-2-+-3-+-4-+-1-+-2-+-3-+-4-+-1-+-2-+-3-+-4-+-1-+-2-+-3-+-4-+-  |
G|-----------------------------------------------------------------| |
D|-----------------------------------------------------------------| |
A|-----------------------------------------------------------------| |
E|-2---------------2---------------2-----------2-------------------| |
B|-----------------------------------------------------------------| |
                                                                     /

Chorus 1 (0:39 to 1:15)

   1-+-2-+-3-+-4-+-1-+-2-+-3-+-4-+-1-+-2-+-3-+-4-+-1-+-2-+-3-+-4-+-
G|-----------------------------------------------------------------|
D|-----------------------------------------------------------------|
A|-----------------------------------------------------------------|
E|-----------------------------------------------------------------|
B|-3---------------3---------------3-----------3-----------3-5-----|

   1-+-2-+-3-+-4-+-1-+-2-+-3-+-4-+-1-+-2-+-3-+-4-+-1-+-2-+-3-+-4-+-
G|-----------------------------------------------------------------|
D|-----------------------------------------------------------------|
A|---------------------------------4---2-0-------------------------|
E|-2---------------2-----------------------2-------------0-2-5-----|
B|-----------------------------------------------------------------|

   1-+-2-+-3-+-4-+-1-+-2-+-3-+-4-+-1-+-2-+-3-+-4-+-1-+-2-+-3-+-4-+-
G|-----------------------------------------------------------------|
D|-----------------------------------------------------------------|
A|-----------------------------------------------------------------|
E|-----------------------------------------------------------------|
B|-3---------------3---------------3-----------3-----------3-5-----|

   1-+-2-+-3-+-4-+-1-+-2-+-3-+-4-+-1-+-2-+-3-+-4-+-1-+-2-+-3-+-4-+-
G|-----------------------------------------------------------------|
D|-----------------------------------------------------------------|
A|---------------------------------4-0-----------------------------|
E|-2---------------2---------------------------2-------------------|
B|-----------------------------------------------------------------|


Verse 2 (1:15 to 1:52)

   1-+-2-+-3-+-4-+-1-+-2-+-3-+-4-+-1-+-2-+-3-+-4-+-1-+-2-+-3-+-4-+-
G|-----------------------------------------------------------------|
D|-----------------------------------------------------------------|
A|-----------------------------------------------------------------|
E|-----------------------------------------------------------------|
B|-3---------------3---3-----------3-----------3-------------------|

   1-+-2-+-3-+-4-+-1-+-2-+-3-+-4-+-1-+-2-+-3-+-4-+-1-+-2-+-3-+-4-+-
G|-----------------------------------------------------------------|
D|-----------------------------------------------------------------|
A|-----------------------------------------------------------------|
E|-2---------------2---2-----------2-----------2-----------2-5-----|
B|-----------------------------------------------------------------|

   1-+-2-+-3-+-4-+-1-+-2-+-3-+-4-+-1-+-2-+-3-+-4-+-1-+-2-+-3-+-4-+-
G|-----------------------------------------------------------------|
D|-----------------------------------------------------------------|
A|-----------------------------------------------------------------|
E|-----------------------------------------------------------------|
B|-3---------------3---3-----------3-----------3-------------------|

   1-+-2-+-3-+-4-+-1-+-2-+-3-+-4-+-1-+-2-+-3-+-4-+-1-+-2-+-3-+-4-+-
G|-----------------------------------------------------------------|
D|-----------------------------------------------------------------|
A|-----------------------------------------------------------------|
E|-2---------------2---------------2-----------2-------------------|
B|-----------------------------------------------------------------|


Chorus 2 (1:52 to 2:32)

   1-+-2-+-3-+-4-+-1-+-2-+-3-+-4-+-1-+-2-+-3-+-4-+-1-+-2-+-3-+-4-+-
G|-----------------------------------------------------------------|
D|-----------------------------------------------------------------|
A|-----------------------------------------------------------------|
E|-----------------------------------------------------------------|
B|-3---------------3---------------3-----------3-----------3-5-----|

   1-+-2-+-3-+-4-+-1-+-2-+-3-+-4-+-1-+-2-+-3-+-4-+-1-+-2-+-3-+-4-+-
G|-----------------------------------------------------------------|
D|-----------------------------------------------------------------|
A|---------------------------------4---2-0-2-0---------------------|
E|-2---------------2---------------------------2---------0-2-5-----|
B|-----------------------------------------------------------------|

   1-+-2-+-3-+-4-+-1-+-2-+-3-+-4-+-1-+-2-+-3-+-4-+-1-+-2-+-3-+-4-+-
G|-----------------------------------------------------------------|
D|-----------------------------------------------------------------|
A|-----------------------------------------------------------------|
E|-----------------------------------------------------------------|
B|-3---------------3---------------3-----------3-----------3-5-----|

   1-+-2-+-3-+-4-+-1-+-2-+-3-+-4-+-1-+-2-+-3-+-4-+-1-+-2-+-3-+-4-+-
G|---------------------------------6-------------------------------|
D|-----------------------------------------7-----------------------|
A|-----------------------------------------------------------------|
E|-2---------------2---------------------------2-------------------|
B|-----------------------------------------------------------------|


Outro (2:32 to end)

   1-+-2-+-3-+-4-+-1-+-2-+-3-+-4-+-1-+-2-+-3-+-4-+-1-+-2-+-3-+-4-+-
G|-----------------------------------------------------------------|
D|-0---------------------------------------------------------------|
A|---------------------------------2-------------------------------|
E|-----------------------------------------------------------------|
B|-----------------------------------------------------------------|

   1-+-2-+-3-+-4-+-1-+-2-+-3-+-4-+-1-+-2-+-3-+-4-+-1-+-2-+-3-+-4-+-
G|-----------------------------------------------------------------|
D|-4-------------------------------2-------------------------------|
A|-----------------------------------------------------------------|
E|-----------------------------------------------------------------|
B|-----------------------------------------------------------------|

   1-+-2-+-3-+-4-+-1-+-2-+-3-+-4-+-1-+-2-+-3-+-4-+-1-+-2-+-3-+-4-+-
G|-----------------------------------------------------------------|
D|-0---------------------------------------------------------------|
A|---------------------------------2-------------------------------|
E|-----------------------------------------------------------------|
B|-----------------------------------------------------------------|

   1-+-2-+-3-+-4-+-1-+-2-+-3-+-4-+-1-+-2-+-3-+-4-+-1-+-2-+-3-+-4-+-
G|-----------------------------------------------------------------|
D|---------------------------------2-------------------------------|
A|-----------------------------------------------------------------|
E|-2---------------------------------------------------------------|
B|-----------------------------------------------------------------|

   1-+-2-+-3-+-4-+-1-+-2-+-3-+-4-+-1-+-2-+-3-+-4-+-1-+-2-+-3-+-4-+-  \
G|-----------------------------------------------------------------| |
D|-0---------------------------------------------------------------| |
A|---------------------------------2-------------------------------| |
E|-----------------------------------------------------------------| |
B|-----------------------------------------------------------------| |
                                                                     | 2x
   1-+-2-+-3-+-4-+-1-+-2-+-3-+-4-+-1-+-2-+-3-+-4-+-1-+-2-+-3-+-4-+-  |
G|-----------------------------------------------------------------| |
D|-4-------------------------------2-------------------------------| |
A|-----------------------------------------------------------------| |
E|-----------------------------------------------------------------| |
B|-----------------------------------------------------------------| |
                                                                     /

=========================================================================
Suggest correction
Creating personal tab
Creating personal tab
You can edit any tab online and save it as your Personal.

You can edit, replace or remove any tab part or add personal notes – all changes will be seen only by you.

Personal tabs can be accessed anytime from any device, even offline.
Learn more »
Give kudos to tab author, rate the tab!
1 2 3 4 5
comments
print report bad tab
guest
You may want to rate the tab now too:
select rating
Wanna post a correction for this tab? Suggest correction