Oops, an error
Loading. Please wait.

Ultimate Showdown bass

version 3
version 3

Whole song

Interactive

10,423 views 18 this week
1 commentread comment
1 2 3 4 5
x 4
add to favorites
×
Save as Personal and add changes to this tab that will be seen only by you. Learn more ›
×
You can save this tab as Personal to edit and correct it or add notes. All changes will be seen only by you. Learn more »
launch autoscroll
font size
0
reset
guitar tuner
edit
Autoscroll
slow
fast
+/-
esc
set tempo
stop
-------------------------------------------------------------------------------
The Ultimate Showdown – Lemon Demon
-------------------------------------------------------------------------------

Tabbed By : Megan
e-mail: Rawr_imadinosaurX@hotmail.com

Tuning: Drop D

Intro and Verse:
G|----------------------------|
D|---0------3--5-------—------|
A|---------1--3----2-----1--0-|
D|-5---5---------4---4-3--2---|x4

G|--------------------------------------------------|
D|---------------------------3-----2----------------|
A|---1-----0-----5-----3---1---1-0---0----0-----0---|
D|-1---1-0---0-5---5-3---3--------------0---0-0---0-|

G|----------------------------|
D|---0------3--5-------—------|
A|---------1--3----2-----1--0-|
D|-5---5---------4---4-3--2---|x2

G|--------------------------------------------------|
D|---------------------------3-----2----------------|
A|---1-----0-----5-----3---1---1-0---0----0-----0---|
D|-1---1-0---0-5---5-3---3--------------0---0-0---0-|


Chorus:
G|----------------------------------------------------------------|
D|----------------------------------------------------------------|
A|-1111------------1111------------11110000--------3333-----------|
D|-----000055553333----000055553333--------22221111----00001111-3-|

Verse:
G|----------------------------|
D|---0------3--5-------—------|
A|---------1--3----2-----1--0-|
D|-5---5---------4---4-3--2---|x4

G|--------------------------------------------------|
D|---------------------------3-----2----------------|
A|---1-----0-----5-----3---1---1-0---0----0-----0---|
D|-1---1-0---0-5---5-3---3--------------0---0-0---0-|

G|----------------------------|
D|---0------3--5-------—------|
A|---------1--3----2-----1--0-|
D|-5---5---------4---4-3--2---|x2

G|--------------------------------------------------|
D|---------------------------3-----2----------------|
A|---1-----0-----5-----3---1---1-0---0----0-----0---|
D|-1---1-0---0-5---5-3---3--------------0---0-0---0-|


Chorus:
G|----------------------------------------------------------------|
D|----------------------------------------------------------------|
A|-1111------------1111------------11110000--------3333-----------|
D|-----000055553333----000055553333--------22221111----00001111-3-|

Bridge: -let notes ring.-
G|------------------------------------------------------------------|
D|------------------------------------------------------------------|
A|-1----------------------------------------------------------------|
D|---------3-------5-------0-------1-------3-------4-------6--------|x2

G|--------------------------------------------------|
D|---------------------------3-----2----------------|
A|---1-----0-----5-----3---1---1-0---0----0-----0---|
D|-1---1-0---0-5---5-3---3--------------0---0-0---0-|x3

On 4th time, the riff changes a bit.
G|-----------------------------------------------|
D|---------------------------3-----2-------------|
A|---1-----0-----5-----3---1---1-0---0----0------|
D|-1---1-0---0-5---5-3---3--------------0---0--1-|


G|--------------------------------------------------------------------/
D|----------------------------------------------------------------8/9-/
A|-1111------------1111------------11110000--------3333---------------/
D|-----000055553333----000055553333--------22221111----00001111-3-----/


G|----------------6/7-------------------|
D|--------------------------------------|
A|-3333----------------3333-------------|
D|-----00001111-3----------00001111-3-3-|


| /  slide up
| \  slide down
| h  hammer-on
| p  pull-off
| ~  vibrato
| +  harmonic
| x  Mute note

            
            
Suggest correction
Creating personal tab
Creating personal tab
You can edit any tab online and save it as your Personal.

You can edit, replace or remove any tab part or add personal notes – all changes will be seen only by you.

Personal tabs can be accessed anytime from any device, even offline.
Learn more »
comments
print report bad tab
1 comment total.
+2 reply
Mezzia 10 Sep 19, 2008 06:52 PM

perfect man thanks a bunch all these other tabs suck dick haha i honestly was told y a kid to learn this song i am to make him happy

guest
You may want to rate the tab now too:
select rating
Wanna post a correction for this tab? Suggest correction