Oops, an error
Loading. Please wait.

Get Some Sleep Bass Tab

1,238 views 1 this week
no commentswrite comment
1 2 3 4 5
1 last vote to show rating
add to favorites
launch autoscroll
font size
0
reset
guitar tuner
Autoscroll
slow
fast
+/-
esc
set tempo
stop
Help us to improve Ultimate-Guitar.com Take our survey!
×
-------------------------------------------------------------------------------
			     GET SOME SLEEP - Lemuria
-------------------------------------------------------------------------------

Tuning: E A G D B e

G|---------------------------------------| etc until “wishing the sun…”
D|---------------------------------------|
A|---------------------------------------|
E|--0-0-0-0-0-0-0-0-0-0-0-0-0-0-0-0-0-0--|

G|---------------------------------------------------------------------------|
D|---------------------------------------------------------------------------|
A|---------------------------------------------------------------------------|
E|--77-55-9999-77-55-9999----------------------------------------------------|

“I’m doin’ alright…”
G|---------------------------------------------------------------------------|
D|---------------------------------------------------------------------------|
A|---------------------------------------------------------------------------|
E|--55-55-77-77-55-55-77-77-55-55-77-77-99-99-55-55--------------------------|

G|---------------------------------------------------------------------------|
D|---------------------------------------------------------------------------|
A|---------------------------------------------------------------------------|
E|--99999999-55555555-7777777799995555--99999999-55555555-7777777799995555---|

“I can’t resist…”
G|---------------------------------------------------------------------------|
D|---------------------------------------------------------------------------|
A|---------------------------------------------------------------------------|
E|--55-55-55-55-55-55-77-99-5-55-55-55-55-55-55-77-99-55-55-55-55-55-55------|

G|---------------------------------------------------------------------------|
D|---------------------------------------------------------------------------|
A|---------------------------------------------------------------------------|
E|--99999999-55555555-7777777799995555--99999999-55555555-7777777799995555---|

“I can’t resist…”
G|---------------------------------------------------------------------------|
D|---------------------------------------------------------------------------|
A|---------------------------------------------------------------------------|
E|--55-55-55-55-55-55-77-99-5-55-55-55-55-55-55-77-99-5-5-5-5-5-5-5-5-5-5-5--|


“With a little bit of luck…”
G|---------------------------------------------------------------------------|
D|---------------------------------------------------------------------------|
A|---------------------------------------------------------------------------|
E|--77777777-99999999-77777777-99999999--------------------------------------|

G|---------------------------------------------------------------------------|
D|---------------------------------------------------------------------------|
A|---------------------------------------------------------------------------|
E|--55-55-55-55-55-55-77-99-5-55-55-55-55-55-55-77-99-55---------------------|
Suggest correction
Give kudos to tab author, rate the tab!
1 2 3 4 5
comments
print report bad tab
guest
You may want to rate the tab now too:
select rating
Wanna post a correction for this tab? Suggest correction