Oops, an error
Loading. Please wait.

Taken By A Stranger Tab

14,098 views 3 this week
1 commentread comment
1 2 3 4 5
worth learning
x 5
add to favorites
launch autoscroll
font size
0
reset
how to read this tab
guitar tuner
Tab Pro tools
  • play this tab
  • loop segment
  • change instrument
  • show fretboard
  • metronome
Autoscroll
slow
fast
+/-
esc
set tempo
stop
Difficulty
intermediate
These Tabs are just for fun. It's a very interesting song! Try it out and have fun. :-)

e:-----------------|
B:--------------8--|
G:--5--------------|
D:-----------------|
A:-----------------|
E:-----------------|

VERS:
e:-----------------------------------|
B:-------------6---------------------|
G:--8--8--5--8--8----8--8--5---------|
D:-----------------------------8--8--|
A:-----------------------------------|
E:-----------------------------------|

e:--------------------------------------|
B:-------------6------8-----------------|
G:--8--8--5--8--8---5-----8---5---------|
D:-------------------------------8------|
A:--------------------------------------|
E:--------------------------------------|

e:--------------------------------------|
B:--8-----6--8--6--5--------------------|
G:-------------------6-----5------------|
D:----------------------8---------------|    2x
A:--------------------------------------|
E:--------------------------------------|

e:-------------------------------------------------------------------|
B:-------------------------------------------------------------------|
G:--------5--8-----------5--8-----------5--8--8--5--5--8--5--8--5----|
D:--5--8-----------5--8-----------5--8----------------------------8--|
A:-------------------------------------------------------------------|
E:-------------------------------------------------------------------|

CHORUS:
e:----------------------------------------------------|
B:-----------6-----8-------8--8-----------------------|
G:---8---5------5----5-----------5--5-----------8--5--|
D:-------------------------------------8--8--5--------|     2x
A:----------------------------------------------------|
E:----------------------------------------------------|

VERS:
e:-------------------------------------------|
B:---------------6---------------------------|
G:---8--8--5--8----8--8----8--8---5--8--5----|
D:-----------------------------------------8-|     2x
A:-------------------------------------------|
E:-------------------------------------------|


e:--------------------------------------|
B:---8-8-8-8-8-8-8-8--6-6-6-6-6--5------|
G:--------------------------------------|
D:--------------------------------------|    2x
A:--------------------------------------|
E:--------------------------------------|

CHORUS:
e:----------------------------------------------------|
B:-----------6-----8-------8--8-----------------------|
G:---8---5------5----5-----------5--5-----------8--5--|
D:-------------------------------------8--8--5--------|
A:----------------------------------------------------|
E:----------------------------------------------------|

e:--------------------------------------------------------------------|
B:-----------6-----8-----------------------8--8-----------------------|
G:---8---5------5----5--5--5--5--5--5--5---------5--5-----------8--5--|
D:-----------------------------------------------------8--8--5--------|
A:--------------------------------------------------------------------|
E:--------------------------------------------------------------------|

BRIDGE:
e:-----------------6--8--10--8--8--8--6--------------10--|
B:-----------6--8------------------------8---------------|
G:--5--7--8---------------------------------8--7---------|
D:-------------------------------------------------------|
A:-------------------------------------------------------|
E:-------------------------------------------------------|

e:------------6----10----8-----6--6----------------------|
B:-------8---------------------------8--8--6--6----------|
G:--5--------------------------------------------8-8-----|
D:----------------------------------------------------5--|
A:-------------------------------------------------------|
E:-------------------------------------------------------|

VERS:
e:-----------------------------------|
B:-------------6---------------------|
G:--8--8--5--8--8----8--8--5---------|
D:-----------------------------8--8--|
A:-----------------------------------|
E:-----------------------------------|

e:--------------------------------------|
B:-------------6------8-----------------|
G:--8--8--5--8--8---5-----8---5---------|
D:-------------------------------8------|
A:--------------------------------------|
E:--------------------------------------|

e:--------------------------------------|
B:--8-----6--8--6--5--------------------|
G:-------------------6-----5------------|
D:----------------------8---------------|
A:--------------------------------------|
E:--------------------------------------|

e:--------------------------------------|
B:--8-----6--8--6--5--------------------|
G:--------------------------------------|
D:--------------------------------------|
A:--------------------------------------|
E:--------------------------------------|

CHORUS:
e:----------------------------------------------------|
B:-----------6-----8-------8--8-----------------------|
G:---8---5------5----5-----------5--5-----------8--5--|
D:-------------------------------------8--8--5--------|
A:----------------------------------------------------|
E:----------------------------------------------------|

e:--------------------------------------------------------------------|
B:-----------6-----8-----------------------8--8-----------------------|
G:---8---5------5----5--5--5--5--5--5--5---------5--5-----------8--5--|
D:-----------------------------------------------------8--8--5--------|
A:--------------------------------------------------------------------|
E:--------------------------------------------------------------------|

END
comments
print report bad tab
1 comment total.
-2 reply
Maldihr wrote on May 15 2011, 12:27 pm

The low e-string is called "e", and the high e-string is called "E", not opposite!

I want to post or [tab]
guest
You may want to rate the tab now too:
select rating
Please do not post tabs as comments. Select "correction" instead!