Oops, an error
Loading. Please wait.

Dont Let Me Fall Chords

version 2
version 2

Whole song

5,458 views 1 this week
no commentswrite comment
1 2 3 4 5
please rate
add to favorites
launch autoscroll
font size
0
reset
transpose
0
reset
- display chords -
guitar tuner
Tab Pro tools
  • play this tab
  • loop segment
  • change instrument
  • show fretboard
  • metronome
×
Best way to learn
"Dont Let Me Fall"
Autoscroll
slow
fast
+/-
esc
set tempo
stop
Contributor
Lenka
Don't let me fall (2:15)
Capo 1
Standard Tuning

Verse : (Same for all other verses)

underneath the moon, underneath the stars
E|-1------------3---------------------1-|
B|-1------------3---------------------1-|
G|-2------------4---------------------2-|
D|-3------------5---------------------3-|
A|-3------------5---------------------3-|
E|-1------------3---------------------1-|

heres a little heart for you
E|-1------------3----------3-|
B|-1------------3----------5-|
G|-2------------4----------4-|
D|-3------------5----------5-|
A|-3------------5----------3-|
E|-1------------3----------0-|


up above the world, up above it all
E|-1------------3----------------1-|
B|-1------------3----------------1-|
G|-2------------4----------------2-|
D|-3------------5----------------3-|
A|-3------------5----------------3-|
E|-1------------3----------------1-|

heres a hand to hold on to
E|-1------------3----------3-|
B|-1------------3----------5-|
G|-2------------4----------4-|
D|-3------------5----------5-|
A|-3------------5----------3-|
E|-1------------3----------0-|

Bridge: (same for the other bridge.. "we will be alright.." )

but if i should break, if i should fall away
E|-1------------3---------------------1-|
B|-1------------3---------------------1-|
G|-2------------4---------------------2-|
D|-3------------5---------------------3-|
A|-3------------5---------------------3-|
E|-1------------3---------------------1-|
what am i to do?
E|-1---------3-|
B|-1---------3-|
G|-2---------4-|
D|-3---------5-|
A|-3---------5-|
E|-1---------3-|
i need someone to take, a little of the weight
E|-1------------3---------------------1-|
B|-1------------3---------------------1-|
G|-2------------4---------------------2-|
D|-3------------5---------------------3-|
A|-3------------5---------------------3-|
E|-1------------3---------------------1-|
or ill fall through
E|-1------------3-|
B|-1------------0-|
G|-2------------0-|
D|-3------------0-|
A|-3------------3-|
E|-1------------2-|

Chorus:

you're just the one that i've been waiting for
E|-1------------3---------------------1-|
B|-1------------3---------------------1-|
G|-2------------4---------------------2-|
D|-3------------5---------------------3-|
A|-3------------5---------------------3-|
E|-1------------3---------------------1-|
i'll give you all that i have to give and more
E|-1------------3--------------------------1-|
B|-1------------3--------------------------3-|
G|-2------------4--------------------------3-|
D|-3------------5--------------------------1-|
A|-3------------5--------------------------1-|
E|-1------------3--------------------------1-|
but don't let me fall
E|----------------0-|
B|----------------1-|
G|----------------0-|
D|----------------2-|
A|----------------3-|
E|----------------0-|

take a little time, walk a little line
got the balance right
give a little love, gimme just enough
so that i can hang on tight

we will be alright, ill be by your side
i wont let you down
but i gotta know, no matter how things go
that you will be around

Chorus

Don’t let me fall

underneath the moon, underneath the stars
here’s a little heart for you
up above the world, up above it all
here’s a hand to hold on to

Chorus

you'll be the one that I’ll love forever more
E|-1------------3-------------------------1-|
B|-1------------3-------------------------1-|
G|-2------------4-------------------------2-|
D|-3------------5-------------------------3-|
A|-3------------5-------------------------3-|
E|-1------------3-------------------------1-|
ill be here holding you high above it all
E|-1------------3----------------------1-|
B|-1------------3----------------------1-|
G|-2------------4----------------------2-|
D|-3------------5----------------------3-|
A|-3------------5----------------------3-|
E|-1------------3----------------------1-|
but don’t let me fall
E|----------------0-|
B|----------------1-|
G|----------------0-|
D|----------------2-|
A|----------------3-|
E|----------------0-|
comments
We did not receive enough feedback on this tab! Please rate:
print report bad tab
1 2 3 4 5
I want to post or [tab]
guest
You may want to rate the tab now too:
select rating
Please do not post tabs as comments. Select "correction" instead!