Oops, an error
Loading. Please wait.

Everything At Once Tab

version 1
version 1

Whole song

Interactive

11,405 views 12 this week
no commentswrite comment
1 2 3 4 5
1 last vote to show rating
add to favorites
launch autoscroll
font size
0
reset
how to read this tab
guitar tuner
Autoscroll
slow
fast
+/-
esc
set tempo
stop
Help us to improve Ultimate-Guitar.com Take our survey!
×
Author
Difficulty
Capo
novice
1st fret
Capo on the 1st



e|-----1------1----1------1-----1----1-----1-----1----------------------|
B|-----3------3----3------3-----3----3-----3-----3----------------------|
G|----------------------------------------------------------------------|
D|--0-----------0------------0------------0-----------------------------|
A|---------0-----------0-----------0----------0-------------------------|
E|----------------------------------------------------------------------|
As sly as a fox, as strong as an ox
As fast as a hare, as brave as a bear
e|------0-----0-----0-----0-----0-----0-----------------------------------|
B|------1-----1-----1-----1-----1-----1-----------------------------------|
G|------------------------------------------------------------------------|
D|------------------------------------------------------------------------|
A|--3------------3------------3-----------3-------------------------------|
E|---------3------------3------------3------------------------------------|
As free as a bird, as neat as a word
As quiet as a mouse, as big as a house
e|-----1------1----1------1---------------------------------------------|
B|-----3------3----3------3---------------------------------------------|
G|----------------------------------------------------------------------|
D|--0-----------0-------------------------------------------------------|
A|---------0-----------0------------------------------------------------|
E|----------------------------------------------------------------------|
All...
e|------0-----0-----0-----0-----------------------------------------------|
B|------1-----1-----1-----1-----------------------------------------------|
G|------------------------------------------------------------------------|
D|------------------------------------------------------------------------|
A|--3------------3--------------------------------------------------------|
E|---------3------------3-------------------------------------------------|
All I wanna be, oh

e|-----1------1----1------1---------------------------------------------|
B|-----3------3----3------3---------------------------------------------|
G|----------------------------------------------------------------------|
D|--0-----------0-------------------------------------------------------|
A|---------0-----------0------------------------------------------------|
E|----------------------------------------------------------------------|
All..
e|------0-----0-----0-----0-----------0-------0---------------------------|
B|------1-----1-----1-----1-----------2-------2---------------------------|
G|------------------------------------------------------------------------|
D|------------------------------------------------------------------------|
A|--3------------3----------------2---------2-------2---------------------|
E|---------3------------3-------------------------------------------------|
All I wanna be, is everything...

 [Repeat Verse]

e|-----1------1----1------1---------------------------------------------|
B|-----3------3----3------3---------------------------------------------|
G|----------------------------------------------------------------------|
D|--0-----------0-------------------------------------------------------|
A|---------0-----------0------------------------------------------------|
E|----------------------------------------------------------------------|
All…..
e|------0-----0-----0-----0-----------0-------0---------------------------|
B|------1-----1-----1-----1-----------2-------2---------------------------|
G|------------------------------------------------------------------------|
D|------------------------------------------------------------------------|
A|--3------------3----------------2---------2-------2---------------------|
E|---------3------------3-------------------------------------------------|
All I wanna be, is everything...
e|-----1-----1-----1-----1-------------1------1------1------1-------------------|
B|-----3-----3-----3-----3-------------3------3------3------3-------------------|
G|------------------------------------------------------------------------------|
D|-------------------------------------0------0-----0-------0-------------------|
A|--1-----1-----1-----1---------------------------------------------------------|
E|------------------------------------------------------------------------------|
Everything at once, oh

e|-----1-----1-----1-----1-------------0------0------0------0-------------------|
B|-----3-----3-----3-----3-------------2------2------2------2-------------------|
G|------------------------------------------------------------------------------|
D|------------------------------------------------------------------------------|
A|--1-----1-----1-----1------------0-------0------0-------0------0--------------|
E|------------------------------------------------------------------------------|
Everything at once.

[Repeat verse and chorus.]
Suggest correction
Give kudos to tab author, rate the tab!
1 2 3 4 5
comments
print report bad tab
guest
You may want to rate the tab now too:
select rating
Wanna post a correction for this tab? Suggest correction