Oops, an error
Loading. Please wait.
We have Chord Pro version of Everything At Once.
It's the closest thing you can get to the original song and it has interactive parts. Check out the tab »
×
by Lenka
1,081 views 3 this week
no commentswrite comment
1 2 3 4 5
3 more votes to show rating
add to favorites
×
Save as Personal and add changes to this tab that will be seen only by you. Learn more ›
launch autoscroll
font size
0
reset
how to read this tab
guitar tuner
Autoscroll
slow
fast
+/-
esc
set tempo
stop
Author
Difficulty
novice
This is my first time making tabs so this is not 100% accurate.
Hope you like it especially my friend Fitzniño del Socorro.



E---11-11-14-14---14-11-11-14------|
B---------------11------------11---|
G----------------------------------|
D----------------------------------|
A----------------------------------|
E----------------------------------|2X
As sly as a fox, as strong as an ox,
As fast as a hare, as brave as a bear

E---10-10-13-13---13-10-10-13------|
B---------------10------------10---|
G----------------------------------|
D----------------------------------|
A----------------------------------|
E----------------------------------|2X
As free as a bird, as neat as a word,
As quiet as a mouse, as big as a house


E----------------------------------|
B---12-10/8-7-8-7------------------|
G-----------------9-8-7-8-7--------|
D----------------------------------|
A----------------------------------|
E----------------------------------|2x
All I wanna be, all I wanna be, oh

E-----------------------------------------|
B---12-10/8-7-8-7---8-7-8-7---8-7-8-7-----|
G-----------------9-----------------------|
D-----------------------------------------|
A-----------------------------------------|
E-----------------------------------------|
All I wanna be, is everything

E---11-11-14-14---14-11-11-14------|
B---------------11------------11---|
G----------------------------------|
D----------------------------------|
A----------------------------------|
E----------------------------------|2X
As mean as a wolf, as sharp as a tooth
As deep as a bite, as dark as the night

E---10-10-13-13---13-10-10-13------|
B---------------10------------10---|
G----------------------------------|
D----------------------------------|
A----------------------------------|
E----------------------------------|2X
As sweet as a song, as right as a wrong
As long as a road, as ugly as a toad

E-11-11-11-14-14---14-11-11-14-14---14----|
B---------------11---------------11-------|
G-----------------------------------------|
D-----------------------------------------|
A-----------------------------------------|
E-----------------------------------------|
As pretty as a picture hanging from a fixture

 
E-10-13-13-----13-10-13-13------13----|
B---------10-10-----------10-10-------|
G-------------------------------------|
D-------------------------------------|
A-------------------------------------|
E-------------------------------------|
Strong like a family, strong as I wanna be

E-10-13---13-10-13----------|
B------10------------10-----|
G---------------------------|
D---------------------------|
A---------------------------|
E---------------------------|
Bright as day, as light as play

E---10-10-13-13---13-10-10-13------|
B---------------10------------10---|
G----------------------------------|
D----------------------------------|
A----------------------------------|
E----------------------------------|
As hard as nails, as grand as a whale

E----------------------------------|
B---12-10/8-7-8-7------------------|
G-----------------9-8-7-8-7--------|
D----------------------------------|
A----------------------------------|
E----------------------------------|2x
All I wanna be, all I wanna be, oh

E-----------------------------------------|
B---12-10/8-7-8-7---8-7-8-7---8-7-8-7-----|
G-----------------9-----------------------|
D-----------------------------------------|
A-----------------------------------------|
E-----------------------------------------|
All I wanna be, is everything

E-----------------|
B---12-10-8-7-----|
G-------------9---|
D-----------------|
A-----------------|
E-----------------|
Everything at once

E---11-11-14-14---14-11-11-14------|
B---------------11------------11---|
G----------------------------------|
D----------------------------------|
A----------------------------------|
E----------------------------------|2X
As warm as the sun, as silly as fun
As cool as a tree, as scary as the sea

E-10-10--13---13-10-13----------|
B------10------------10---------|
G-------------------------------|
D-------------------------------|
A-------------------------------|
E-------------------------------|
As hot as fire, cold as ice

E-10-13------13-10-10-13-------|
B------10-10------------10-----|
G------------------------------|
D------------------------------|
A------------------------------|
E------------------------------|
Sweet as sugar and everything nice


E---11-11-14----14-11-11-14-----|
B------------11------------11---|
G-------------------------------|
D-------------------------------|
A-------------------------------|
E-------------------------------|
As old as time, as straight as a line

E-11-11-11-14-14---14-11-11-14-------|
B---------------11-------------11----|
G------------------------------------|
D------------------------------------|
A------------------------------------|
E------------------------------------|
As royal as a queen, as buzzed as a bee

E---10-10-13-13---13-10-10-13------|
B---------------10------------10---|
G----------------------------------|
D----------------------------------|
A----------------------------------|
E----------------------------------|
Stealth as a tiger, smooth as a glider

E-10-13-13-----13-10-13-13------13----|
B---------10-10-----------10-10-------|
G-------------------------------------|
D-------------------------------------|
A-------------------------------------|
E-------------------------------------|
Pure as a melody, pure as I wanna be

E----------------------------------|
B---12-10/8-7-8-7------------------|
G-----------------9-8-7-8-7--------|
D----------------------------------|
A----------------------------------|
E----------------------------------|2x
All I wanna be, all I wanna be, oh

E-----------------------------------------|
B---12-10/8-7-8-7---8-7-8-7---8-7-8-7-----|
G-----------------9-----------------------|
D-----------------------------------------|
A-----------------------------------------|
E-----------------------------------------|
All I wanna be, is everything

E-----------------|
B---12-10-8-7-----|
G-------------9---|
D-----------------|
A-----------------|
E-----------------|
Everything at once
Suggest correction
Give kudos to tab author, rate the tab!
1 2 3 4 5
comments
print report bad tab
guest
You may want to rate the tab now too:
select rating
Wanna post a correction for this tab? Suggest correction