Oops, an error
Loading. Please wait.

The Show Bass Tab

version 1
version 1

Whole song

Interactive

10,336 views 18 this week
no commentswrite comment
1 2 3 4 5
please rate
add to favorites
launch autoscroll
font size
0
reset
guitar tuner
Tab Pro tools
  • play this tab
  • loop segment
  • change instrument
  • show fretboard
  • metronome
×
Best way to learn
"The Show"
Autoscroll
slow
fast
+/-
esc
set tempo
stop
Contributor
Difficulty
novice
-------------------------------------------------------------------------------
			     The Show - Lenka
-------------------------------------------------------------------------------

crush n crush q c Lenka Kripac kaya q ginawa to. lol

99.002031 % correct

Tabbed By : James T. Labor
092131355607

e-mail: DrDolitle002@gmail.com (misspelled i know)

Tuning: Standard

00:27

G|----------------------------------------------------------------------------|
D|----------------------------------------------------------------------------|
A|-3---3--------------------3/---3---------------------------/10-10-10-10\----|
E|-------3---35---51-1-3--------3/---35/---51/---13333------------------------|

Chorus:

G|---------------------------------------------------------------------------|
D|---------------------------------------------------------------------------|
A|-3--33--3--33-4--------------------------------------/8--88-10-------------|
E|-----------------3--33--3--33-4-5--55--5-55-3-1--11------------------------|


Continued:

G|---------------------------------------------------------------------------|
D|---------------------------------------------------------------------------|
A|-3--33--3--33-4---------------------------------------------------3~-------|
E|-----------------3--33--3--33-4-5--55--5-55-3-1--11--1--11-2-3333----------|

01:22

G|--------------------------------------------------------------------------|
D|--------------------------------------------------------------------------|
A|-3/--3------------------3333-----------------------3/--3------------------|
E|------3/--35--51-1-3-------333/5--5555\--111/3----------3/--35/--51/------|

G|---------------------------------|
D|---------------------------------|
A|---------/1010101010101010-------|
E|-15555---------------------------|

Chorus 2:

G|---------------------------------------------------------------------------|
D|---------------------------------------------------------------------------|
A|-3--33--3--33-4--------------------------------------/8--88-10-------------|
E|-----------------3--33--3--33-4-5--55--5-55-3-1--11------------------------|

G|---------------------------------------------------------------------------|
D|---------------------------------------------------------------------------|
A|-3--33--3--33-4------------------------------------------------------------|
E|-----------------3--33--3--33-4-5--55--5-55-3-1--11--1--11-2-3333----------|

Continued:

G|--------------------------------------------------------------------------|
D|--------------------------------------------------------------------------|
A|-----/1010\---------/8-88-8\--3-33-3-3-33-------/8-88----\3-33-3~---------|
E|-33---------1-11---------------------------1-11---------------------------|

02:52
G|----------------------|
D|----------------------|
A|----------------------|
E|-1--1--1/3-3----------|

(Repeat Chorus)

03:23
G|---------------------------------------------------------------------------|
D|-/10--10-------------------------------------------------------------------|
A|--------10--10,12--12,8----------------------------------------------------|
E|---------------------------------------------------------------------------|

I want my money back:

G|-----------------------------------------------------------|
D|-----------------------------/10-10~-----------------------|
A|-3/--3-------------/8-8/-10-----------/10-10--/12-12-------|
E|------3--35--51-------------------------------------1------|

comment Lng kung may maLi.

MABUHAY ANG ASPO!!!

BS-Pharmacy 1B at 2A, la Lng :)

add nyo rin aq s FB :) enks

| /  slide up
| \  slide down
| h  hammer-on
| p  pull-off
| ~  vibrato
| +  harmonic
| x  Mute note
===============================================================================
comments
We did not receive enough feedback on this tab! Please rate:
print report bad tab
1 2 3 4 5
I want to post or [tab]
guest
You may want to rate the tab now too:
select rating
Please do not post tabs as comments. Select "correction" instead!