Oops, an error
Loading. Please wait.

A Million Miles Away Bass Tab

1,031 views 1 this week
no commentswrite comment
1 2 3 4 5
excellent!
x 3
add to favorites
launch autoscroll
font size
0
reset
guitar tuner
Autoscroll
slow
fast
+/-
esc
set tempo
stop
Help us to improve Ultimate-Guitar.com Take our survey!
×
Author
Song: A million miles away
Artist: Lenny Kravitz
Album: Lenny (2001)

Tabbed by Marcos Prieto (marcrow_ps@yahoo.es)

 Notation legend:

 +.-.+.-. = is the drum's rhythm. '+' represent the drum bass, '-' the snare,
	    ant 'T' the tombs.
        " = notes higher than 9 (10, 11, 12...). 12 is 12, not 1 and 2.
                                                 " 
Intro (no bass).

Chorus:
  G       G/F#     Em      D        C       D#  F    G       G/F#
  + . - .++ . - .+ + . - .++ . - .+ + . - .++ . - .+ + . - .++ . - .+
G|----------------|----------------|----------------|----------------|
D|5-------4-------|2---------------|------------3---|5-------4-------|
A|----------------|--------5-------|3-----5-6-------|----------------|
E|----------------|----------------|----------------|----------------|

  Em      D        C       D#  F    G
  + . - .++ . - .+ + . - .++ . - .+ + . - .++ . - .+ 
G|----------------|----------------|----------------|
D|2---------------|------------3---|5---------------|
A|--------5-------|3-----5-6-------|----------------|
E|----------------|----------------|----------------|

Verse:
  G                G/F#             Em               Bm           A
  + . - .++ . - .+ + . - .++ . - .+ + . - .++ . - .+ + . - .++----TTT
G|----------------|----------------|----------------|----------------|
D|----------------|----------------|----------------|----------------|
A|----------------|----------------|----------------|2--------2222---|
E|3---------------|2---------------|0---------------|-------------555|

  G                G/F#             Em               Bm
  + . - .++ . - .+ + . - .++ . - .+ + . - .++ . - .+ + . - .++ . - .+
G|----------------|----------------|----------------|----------------|
D|----------------|----------------|----------------|----------------|
A|----------------|----------------|---------------0|2---------------|
E|3---------------|2------------2/-|12------------5-|----------------|
			    	    "
  G       D   C#   C       F			    
  + . - .++ . - .+ + . - .++          ----TT 
G|----------------|----------------|--------|
D|----------------|----------------|--------|
A|--------5---4---|3-----3---------|--------|
E|3-----3---------|--------1-------|--------|

Chorus.

Variation:
  Bm               Em            G A  Bm               Em           EmGG#m
  + . - .++ . - .+ + . - .++ . - T T  + . - .++ . - .+ + . - .++ ---TTT
G|--------454-2---|------------------|--------454-2---|----------------|
D|------4------54-|2-------2---2-----|------4------54-|2------2--------|
A|2---------------|------2-----------|2---------------|------2-2-------|
E|----------------|--------------3-5-|----------------|---------0---034|

  A         	   C 
  + . - .++ . - .+ + . - .++ .       -- T  T
G|----------------|----------------|--------|
D|-------7--------|----------------|--------|
A|------7-7-------|----------------|--------|
E|5--------5----57|8-----8-8-------|--------|

Solo (Chorus).

End Chorus:
  G       G/F#     Em      D        C       D#  F    G       G/F#
  + . - .++ . - .+ + . - .++ . - .+ + . - .++ . - .+ + . - .++ . - .+
G|----------------|----------------|----------------|----------------|
D|----------------|----------------|------------3---|----------------|
A|----------------|--------5-------|3-----5-6-------|----------------|
E|3-------2-------|0---------------|----------------|3-------2-------|

  Em      D        C       D#  F    G
  + . - .++ . - .+ + . - .++ . - .+ + . - .++ ---TTTT
G|----------------|----------------|-----------------|
D|----------------|------------3---|5----------------|
A|--------5-------|3-----5-6-------|-----------------|
E|0---------------|----------------|-----------------|

  D#      F        G                 D#      F        G
  + . - .++ . - .+ + . - .++ ---TTTT + . - .++ . - .+ + . - .++ ---TTTT
G|----------------|-----------------|----------------|-----------------|
D|--------3-------|5----------------|--------3-------|-----------------|
A|6---------------|-----------------|6---------------|-----------------|
E|----------------|-----------------|----------------|3----------------|

  D#      F       G
  +
G|----------------|----------------|
D|--------3-------|5---------------|
A|6---------------|----------------|
E|----------------|----------------|
Suggest correction
Give kudos to tab author, rate the tab!
1 2 3 4 5
comments
print report bad tab
guest
You may want to rate the tab now too:
select rating
Wanna post a correction for this tab? Suggest correction